  0
SECTION
  2
HEADER
  9
$ACADVER
  1
AC1015
  9
$ACADMAINTVER
 70
     6
  9
$DWGCODEPAGE
  3
ANSI_1254
  9
$INSBASE
 10
0.0
 20
0.0
 30
0.0
  9
$EXTMIN
 10
0.0
 20
0.0
 30
0.0
  9
$EXTMAX
 10
279.4
 20
215.9
 30
0.0
  9
$LIMMIN
 10
0.0
 20
0.0
  9
$LIMMAX
 10
279.4
 20
215.9
  9
$ORTHOMODE
 70
     0
  9
$REGENMODE
 70
     1
  9
$FILLMODE
 70
     1
  9
$QTEXTMODE
 70
     0
  9
$MIRRTEXT
 70
     1
  9
$LTSCALE
 40
1.0
  9
$ATTMODE
 70
     1
  9
$TEXTSIZE
 40
3.5
  9
$TRACEWID
 40
1.0
  9
$TEXTSTYLE
  7
Standard
  9
$CLAYER
  8
0
  9
$CELTYPE
  6
ByLayer
  9
$CECOLOR
 62
   256
  9
$CELTSCALE
 40
1.0
  9
$DISPSILH
 70
     0
  9
$DIMSCALE
 40
1.0
  9
$DIMASZ
 40
3.5
  9
$DIMEXO
 40
1.0
  9
$DIMDLI
 40
3.75
  9
$DIMRND
 40
0.0
  9
$DIMDLE
 40
0.0
  9
$DIMEXE
 40
1.0
  9
$DIMTP
 40
0.0
  9
$DIMTM
 40
0.0
  9
$DIMTXT
 40
3.5
  9
$DIMCEN
 40
2.5
  9
$DIMTSZ
 40
0.0
  9
$DIMTOL
 70
     0
  9
$DIMLIM
 70
     0
  9
$DIMTIH
 70
     1
  9
$DIMTOH
 70
     1
  9
$DIMSE1
 70
     0
  9
$DIMSE2
 70
     0
  9
$DIMTAD
 70
     1
  9
$DIMZIN
 70
     0
  9
$DIMBLK
  1

  9
$DIMASO
 70
     1
  9
$DIMSHO
 70
     1
  9
$DIMPOST
  1

  9
$DIMAPOST
  1

  9
$DIMALT
 70
     0
  9
$DIMALTD
 70
     3
  9
$DIMALTF
 40
0.0393700787
  9
$DIMLFAC
 40
1.0
  9
$DIMTOFL
 70
     1
  9
$DIMTVP
 40
0.0
  9
$DIMTIX
 70
     0
  9
$DIMSOXD
 70
     0
  9
$DIMSAH
 70
     0
  9
$DIMBLK1
  1

  9
$DIMBLK2
  1

  9
$DIMSTYLE
  2
ISO-25
  9
$DIMCLRD
 70
     0
  9
$DIMCLRE
 70
     0
  9
$DIMCLRT
 70
     0
  9
$DIMTFAC
 40
1.0
  9
$DIMGAP
 40
1.524
  9
$DIMJUST
 70
     0
  9
$DIMSD1
 70
     0
  9
$DIMSD2
 70
     0
  9
$DIMTOLJ
 70
     0
  9
$DIMTZIN
 70
     0
  9
$DIMALTZ
 70
     0
  9
$DIMALTTZ
 70
     0
  9
$DIMUPT
 70
     0
  9
$DIMDEC
 70
     2
  9
$DIMTDEC
 70
     2
  9
$DIMALTU
 70
     2
  9
$DIMALTTD
 70
     3
  9
$DIMTXSTY
  7
Standard
  9
$DIMAUNIT
 70
     0
  9
$DIMADEC
 70
     2
  9
$DIMALTRND
 40
0.0
  9
$DIMAZIN
 70
     0
  9
$DIMDSEP
 70
    44
  9
$DIMATFIT
 70
     3
  9
$DIMFRAC
 70
     0
  9
$DIMLDRBLK
  1

  9
$DIMLUNIT
 70
     2
  9
$DIMLWD
 70
    -2
  9
$DIMLWE
 70
    -2
  9
$DIMTMOVE
 70
     0
  9
$LUNITS
 70
     2
  9
$LUPREC
 70
     2
  9
$SKETCHINC
 40
1.0
  9
$FILLETRAD
 40
10.0
  9
$AUNITS
 70
     0
  9
$AUPREC
 70
     2
  9
$MENU
  1
.
  9
$ELEVATION
 40
0.0
  9
$PELEVATION
 40
0.0
  9
$THICKNESS
 40
0.0
  9
$LIMCHECK
 70
     0
  9
$CHAMFERA
 40
0.0
  9
$CHAMFERB
 40
0.0
  9
$CHAMFERC
 40
0.0
  9
$CHAMFERD
 40
0.0
  9
$SKPOLY
 70
     0
  9
$TDCREATE
 40
2460346.670781563
  9
$TDUCREATE
 40
2460346.545781563
  9
$TDUPDATE
 40
2460346.670781748
  9
$TDUUPDATE
 40
2460346.545781748
  9
$TDINDWG
 40
0.0000000116
  9
$TDUSRTIMER
 40
0.0000000116
  9
$USRTIMER
 70
     1
  9
$ANGBASE
 50
0.0
  9
$ANGDIR
 70
     0
  9
$PDMODE
 70
     0
  9
$PDSIZE
 40
-1.0
  9
$PLINEWID
 40
0.0
  9
$SPLFRAME
 70
     0
  9
$SPLINETYPE
 70
     6
  9
$SPLINESEGS
 70
     8
  9
$HANDSEED
  5
126
  9
$SURFTAB1
 70
     6
  9
$SURFTAB2
 70
     6
  9
$SURFTYPE
 70
     6
  9
$SURFU
 70
     6
  9
$SURFV
 70
     6
  9
$UCSBASE
  2

  9
$UCSNAME
  2

  9
$UCSORG
 10
0.0
 20
0.0
 30
0.0
  9
$UCSXDIR
 10
1.0
 20
0.0
 30
0.0
  9
$UCSYDIR
 10
0.0
 20
1.0
 30
0.0
  9
$UCSORTHOREF
  2

  9
$UCSORTHOVIEW
 70
     0
  9
$UCSORGTOP
 10
0.0
 20
0.0
 30
0.0
  9
$UCSORGBOTTOM
 10
0.0
 20
0.0
 30
0.0
  9
$UCSORGLEFT
 10
0.0
 20
0.0
 30
0.0
  9
$UCSORGRIGHT
 10
0.0
 20
0.0
 30
0.0
  9
$UCSORGFRONT
 10
0.0
 20
0.0
 30
0.0
  9
$UCSORGBACK
 10
0.0
 20
0.0
 30
0.0
  9
$PUCSBASE
  2

  9
$PUCSNAME
  2

  9
$PUCSORG
 10
0.0
 20
0.0
 30
0.0
  9
$PUCSXDIR
 10
1.0
 20
0.0
 30
0.0
  9
$PUCSYDIR
 10
0.0
 20
1.0
 30
0.0
  9
$PUCSORTHOREF
  2

  9
$PUCSORTHOVIEW
 70
     0
  9
$PUCSORGTOP
 10
0.0
 20
0.0
 30
0.0
  9
$PUCSORGBOTTOM
 10
0.0
 20
0.0
 30
0.0
  9
$PUCSORGLEFT
 10
0.0
 20
0.0
 30
0.0
  9
$PUCSORGRIGHT
 10
0.0
 20
0.0
 30
0.0
  9
$PUCSORGFRONT
 10
0.0
 20
0.0
 30
0.0
  9
$PUCSORGBACK
 10
0.0
 20
0.0
 30
0.0
  9
$USERI1
 70
     0
  9
$USERI2
 70
     0
  9
$USERI3
 70
     0
  9
$USERI4
 70
     0
  9
$USERI5
 70
     0
  9
$USERR1
 40
0.0
  9
$USERR2
 40
0.0
  9
$USERR3
 40
0.0
  9
$USERR4
 40
0.0
  9
$USERR5
 40
0.0
  9
$WORLDVIEW
 70
     1
  9
$SHADEDGE
 70
     3
  9
$SHADEDIF
 70
    70
  9
$TILEMODE
 70
     1
  9
$MAXACTVP
 70
    64
  9
$PINSBASE
 10
0.0
 20
0.0
 30
0.0
  9
$PLIMCHECK
 70
     0
  9
$PEXTMIN
 10
1.0000000000E+20
 20
1.0000000000E+20
 30
1.0000000000E+20
  9
$PEXTMAX
 10
-1.0000000000E+20
 20
-1.0000000000E+20
 30
-1.0000000000E+20
  9
$PLIMMIN
 10
0.0
 20
0.0
  9
$PLIMMAX
 10
420.0
 20
297.0
  9
$UNITMODE
 70
     0
  9
$VISRETAIN
 70
     1
  9
$PLINEGEN
 70
     0
  9
$PSLTSCALE
 70
     1
  9
$TREEDEPTH
 70
  3020
  9
$CMLSTYLE
  2
Standard
  9
$CMLJUST
 70
     0
  9
$CMLSCALE
 40
20.0
  9
$PROXYGRAPHICS
 70
     1
  9
$MEASUREMENT
 70
     1
  9
$CELWEIGHT
370
    -1
  9
$ENDCAPS
280
     0
  9
$JOINSTYLE
280
     0
  9
$LWDISPLAY
290
     1
  9
$INSUNITS
 70
     4
  9
$HYPERLINKBASE
  1

  9
$STYLESHEET
  1

  9
$XEDIT
290
     1
  9
$CEPSNTYPE
380
     0
  9
$PSTYLEMODE
290
     1
  9
$FINGERPRINTGUID
  2
{c86e4232-2d95-40f7-935b-b444c86ecbc2}
  9
$VERSIONGUID
  2
{FAEB1C32-E019-11D5-929B-00C0DF256EC4}
  9
$EXTNAMES
290
     1
  9
$PSVPSCALE
 40
0.0
  9
$OLESTARTUP
290
     0
  0
ENDSEC
  0
SECTION
  2
CLASSES
  0
CLASS
  1
ACDBDICTIONARYWDFLT
  2
AcDbDictionaryWithDefault
  3
ObjectDBX Classes
 90
        0
280
     0
281
     0
  0
CLASS
  1
VISUALSTYLE
  2
AcDbVisualStyle
  3
ObjectDBX Classes
 90
     4095
280
     0
281
     0
  0
CLASS
  1
MATERIAL
  2
AcDbMaterial
  3
ObjectDBX Classes
 90
     1153
280
     0
281
     0
  0
CLASS
  1
SCALE
  2
AcDbScale
  3
ObjectDBX Classes
 90
     1153
280
     0
281
     0
  0
CLASS
  1
TABLESTYLE
  2
AcDbTableStyle
  3
ObjectDBX Classes
 90
     4095
280
     0
281
     0
  0
CLASS
  1
MLEADERSTYLE
  2
AcDbMLeaderStyle
  3
ACDB_MLEADERSTYLE_CLASS
 90
     4095
280
     0
281
     0
  0
CLASS
  1
SUN
  2
AcDbSun
  3
SCENEOE
 90
     1153
280
     0
281
     0
  0
CLASS
  1
ACDBPLACEHOLDER
  2
AcDbPlaceHolder
  3
ObjectDBX Classes
 90
        0
280
     0
281
     0
  0
CLASS
  1
LAYOUT
  2
AcDbLayout
  3
ObjectDBX Classes
 90
        0
280
     0
281
     0
  0
ENDSEC
  0
SECTION
  2
TABLES
  0
TABLE
  2
VPORT
  5
8
330
0
100
AcDbSymbolTable
 70
     1
  0
VPORT
  5
29
330
8
100
AcDbSymbolTableRecord
100
AcDbViewportTableRecord
  2
*Active
 70
     0
 10
0.0
 20
0.0
 11
1.0
 21
1.0
 12
139.7
 22
107.95
 13
0.0
 23
0.0
 14
10.0
 24
10.0
 15
10.0
 25
10.0
 16
0.0
 26
0.0
 36
1.0
 17
0.0
 27
0.0
 37
0.0
 40
215.9
 41
1.2941176471
 42
50.0
 43
0.0
 44
0.0
 50
0.0
 51
0.0
 71
     0
 72
  2000
 73
     1
 74
     3
 75
     0
 76
     0
 77
     0
 78
     0
281
     0
 65
     1
110
0.0
120
0.0
130
0.0
111
1.0
121
0.0
131
0.0
112
0.0
122
1.0
132
0.0
 79
     0
146
0.0
  0
ENDTAB
  0
TABLE
  2
LTYPE
  5
5
330
0
100
AcDbSymbolTable
 70
     6
  0
LTYPE
  5
14
330
5
100
AcDbSymbolTableRecord
100
AcDbLinetypeTableRecord
  2
ByBlock
 70
     0
  3

 72
    65
 73
     0
 40
0.0
  0
LTYPE
  5
15
330
5
100
AcDbSymbolTableRecord
100
AcDbLinetypeTableRecord
  2
ByLayer
 70
     0
  3

 72
    65
 73
     0
 40
0.0
  0
LTYPE
  5
16
330
5
100
AcDbSymbolTableRecord
100
AcDbLinetypeTableRecord
  2
Continuous
 70
     0
  3
Solid line
 72
    65
 73
     0
 40
0.0
  0
LTYPE
  5
6E
330
5
100
AcDbSymbolTableRecord
100
AcDbLinetypeTableRecord
  2
HIDDEN
 70
     0
  3
Hidden __ __ __ __ __ __ __ __ __ __ __ __ __ __
 72
    65
 73
     2
 40
1.905
 49
1.27
 74
     0
 49
-0.635
 74
     0
  0
LTYPE
  5
6F
330
5
100
AcDbSymbolTableRecord
100
AcDbLinetypeTableRecord
  2
PHANTOM
 70
     0
  3
Phantom ______  __  __  ______  __  __  ______
 72
    65
 73
     6
 40
12.7
 49
6.35
 74
     0
 49
-1.27
 74
     0
 49
1.27
 74
     0
 49
-1.27
 74
     0
 49
1.27
 74
     0
 49
-1.27
 74
     0
  0
LTYPE
  5
70
330
5
100
AcDbSymbolTableRecord
100
AcDbLinetypeTableRecord
  2
CENTER
 70
     0
  3
Center ____ _ ____ _ ____ _ ____ _ ____ _ ____
 72
    65
 73
     4
 40
10.16
 49
6.35
 74
     0
 49
-1.27
 74
     0
 49
1.27
 74
     0
 49
-1.27
 74
     0
  0
LTYPE
  5
71
330
5
100
AcDbSymbolTableRecord
100
AcDbLinetypeTableRecord
  2
CENTERX2
 70
     0
  3
Center (2x) ________  __  ________  __  _____
 72
    65
 73
     4
 40
20.32
 49
12.7
 74
     0
 49
-2.54
 74
     0
 49
2.54
 74
     0
 49
-2.54
 74
     0
  0
LTYPE
  5
72
330
5
100
AcDbSymbolTableRecord
100
AcDbLinetypeTableRecord
  2
DOT2
 70
     0
  3
Dot (.5x) ........................................
 72
    65
 73
     2
 40
0.635
 49
0.0
 74
     0
 49
-0.635
 74
     0
  0
ENDTAB
  0
TABLE
  2
LAYER
  5
2
330
0
100
AcDbSymbolTable
 70
    17
  0
LAYER
  5
10
330
2
100
AcDbSymbolTableRecord
100
AcDbLayerTableRecord
  2
0
 70
     0
 62
     7
  6
Continuous
370
    -3
390
F
  0
LAYER
  5
73
330
2
100
AcDbSymbolTableRecord
100
AcDbLayerTableRecord
  2
FORMAT
 70
     0
 62
     7
  6
Continuous
370
    -3
390
F
  0
LAYER
  5
74
330
2
100
AcDbSymbolTableRecord
100
AcDbLayerTableRecord
  2
YARDIMCI_GEOMETRI
 70
     0
 62
    -6
  6
Continuous
290
     0
370
    -3
390
F
  0
LAYER
  5
75
330
2
100
AcDbSymbolTableRecord
100
AcDbLayerTableRecord
  2
SAYFA_CERCEVESI
 70
     0
 62
     7
  6
Continuous
370
    25
390
F
  0
LAYER
  5
76
330
2
100
AcDbSymbolTableRecord
100
AcDbLayerTableRecord
  2
ANTET
 70
     0
 62
     7
  6
Continuous
370
    -3
390
F
  0
LAYER
  5
77
330
2
100
AcDbSymbolTableRecord
100
AcDbLayerTableRecord
  2
OLCU
 70
     0
 62
   150
  6
Continuous
370
    -3
390
F
  0
LAYER
  5
78
330
2
100
AcDbSymbolTableRecord
100
AcDbLayerTableRecord
  2
METIN
 70
     0
 62
    96
  6
Continuous
370
    -3
390
F
  0
LAYER
  5
79
330
2
100
AcDbSymbolTableRecord
100
AcDbLayerTableRecord
  2
BALON
 70
     0
 62
     5
  6
Continuous
370
    -3
390
F
  0
LAYER
  5
7A
330
2
100
AcDbSymbolTableRecord
100
AcDbLayerTableRecord
  2
VURGU
 70
     0
 62
     7
  6
Continuous
370
    -3
390
F
  0
LAYER
  5
7B
330
2
100
AcDbSymbolTableRecord
100
AcDbLayerTableRecord
  2
SILIK
 70
     0
 62
     7
  6
Continuous
370
    -3
390
F
  0
LAYER
  5
7C
330
2
100
AcDbSymbolTableRecord
100
AcDbLayerTableRecord
  2
MODEL
 70
     0
 62
     7
  6
Continuous
370
    -3
390
F
  0
LAYER
  5
7D
330
2
100
AcDbSymbolTableRecord
100
AcDbLayerTableRecord
  2
DETAYLANDıRMA
 70
     0
 62
   190
  6
Continuous
370
    -3
390
F
  0
LAYER
  5
7E
330
2
100
AcDbSymbolTableRecord
100
AcDbLayerTableRecord
  2
TOLERANS
 70
     0
 62
   230
  6
Continuous
370
    -3
390
F
  0
LAYER
  5
7F
330
2
100
AcDbSymbolTableRecord
100
AcDbLayerTableRecord
  2
MERKEZ_CIZGILERI
 70
     0
 62
    30
  6
Continuous
370
    -3
390
F
  0
LAYER
  5
80
330
2
100
AcDbSymbolTableRecord
100
AcDbLayerTableRecord
  2
KESIT-DETAY_CIZGILERI
 70
     0
 62
     7
  6
Continuous
370
    -3
390
F
  0
LAYER
  5
81
330
2
100
AcDbSymbolTableRecord
100
AcDbLayerTableRecord
  2
\U+041E\U+0421\U+0415\U+0412\U+042B\U+0415
 70
     0
 62
     7
  6
Continuous
370
    -3
390
F
  0
LAYER
  5
82
330
2
100
AcDbSymbolTableRecord
100
AcDbLayerTableRecord
  2
\U+0412\U+041E\U+0414\U+042F\U+041D\U+042B\U+0415_\U+0417\U+041D\U+0410\U+041A\U+0418
 70
     0
 62
    11
  6
Continuous
370
    -3
390
F
  0
ENDTAB
  0
TABLE
  2
STYLE
  5
3
330
0
100
AcDbSymbolTable
 70
     1
  0
STYLE
  5
11
330
3
100
AcDbSymbolTableRecord
100
AcDbTextStyleTableRecord
  2
Standard
 70
     0
 40
0.0
 41
1.0
 50
0.0
 71
     0
 42
3.5
  3
txt
  4

  0
ENDTAB
  0
TABLE
  2
VIEW
  5
6
330
0
100
AcDbSymbolTable
 70
     0
  0
ENDTAB
  0
TABLE
  2
UCS
  5
7
330
0
100
AcDbSymbolTable
 70
     0
  0
ENDTAB
  0
TABLE
  2
APPID
  5
9
330
0
100
AcDbSymbolTable
 70
     1
  0
APPID
  5
12
330
9
100
AcDbSymbolTableRecord
100
AcDbRegAppTableRecord
  2
ACAD
 70
     0
  0
ENDTAB
  0
TABLE
  2
DIMSTYLE
  5
A
330
0
100
AcDbSymbolTable
 70
     1
100
AcDbDimStyleTable
  0
DIMSTYLE
105
27
330
A
100
AcDbSymbolTableRecord
100
AcDbDimStyleTableRecord
  2
ISO-25
 70
     0
 41
2.5
 42
0.625
 43
3.75
 44
1.25
 73
     0
 74
     0
 77
     1
 78
     8
140
2.5
141
2.5
143
0.0393700787
147
0.625
171
     3
172
     1
178
     0
271
     2
272
     2
274
     3
278
    44
283
     0
284
     8
340
11
  0
ENDTAB
  0
TABLE
  2
BLOCK_RECORD
  5
1
330
0
100
AcDbSymbolTable
 70
     4
  0
BLOCK_RECORD
  5
1F
330
1
100
AcDbSymbolTableRecord
100
AcDbBlockTableRecord
  2
*Model_Space
340
22
  0
BLOCK_RECORD
  5
1B
330
1
100
AcDbSymbolTableRecord
100
AcDbBlockTableRecord
  2
*Paper_Space
340
1E
  0
BLOCK_RECORD
  5
23
330
1
100
AcDbSymbolTableRecord
100
AcDbBlockTableRecord
  2
*Paper_Space0
340
26
  0
BLOCK_RECORD
  5
8C
330
1
100
AcDbSymbolTableRecord
100
AcDbBlockTableRecord
  2
SW_CENTERMARKSYMBOL_0
340
0
102
{BLKREFS
331
97
102
}
  0
BLOCK_RECORD
  5
C6
330
1
100
AcDbSymbolTableRecord
100
AcDbBlockTableRecord
  2
SW_CENTERMARKSYMBOL_1
340
0
102
{BLKREFS
331
D1
102
}
  0
BLOCK_RECORD
  5
D2
330
1
100
AcDbSymbolTableRecord
100
AcDbBlockTableRecord
  2
SW_CENTERMARKSYMBOL_2
340
0
102
{BLKREFS
331
DD
102
}
  0
ENDTAB
  0
ENDSEC
  0
SECTION
  2
BLOCKS
  0
BLOCK
  5
20
330
1F
100
AcDbEntity
  8
0
100
AcDbBlockBegin
  2
*Model_Space
 70
     0
 10
0.0
 20
0.0
 30
0.0
  3
*Model_Space
  1

  0
ENDBLK
  5
21
330
1F
100
AcDbEntity
  8
0
100
AcDbBlockEnd
  0
BLOCK
  5
1C
330
1B
100
AcDbEntity
 67
     1
  8
0
100
AcDbBlockBegin
  2
*Paper_Space
 70
     0
 10
0.0
 20
0.0
 30
0.0
  3
*Paper_Space
  1

  0
ENDBLK
  5
1D
330
1B
100
AcDbEntity
 67
     1
  8
0
100
AcDbBlockEnd
  0
BLOCK
  5
24
330
23
100
AcDbEntity
  8
0
100
AcDbBlockBegin
  2
*Paper_Space0
 70
     0
 10
0.0
 20
0.0
 30
0.0
  3
*Paper_Space0
  1

  0
ENDBLK
  5
25
330
23
100
AcDbEntity
  8
0
100
AcDbBlockEnd
  0
BLOCK
  5
8D
330
8C
100
AcDbEntity
  8
0
100
AcDbBlockBegin
  2
SW_CENTERMARKSYMBOL_0
 70
     0
 10
0.0
 20
0.0
 30
0.0
  3
SW_CENTERMARKSYMBOL_0
  1

  0
LINE
  5
8F
330
8C
100
AcDbEntity
  8
FORMAT
 62
     0
100
AcDbLine
 10
0.0
 20
0.0
 30
0.0
 11
0.0
 21
2.5
 31
0.0
  0
LINE
  5
90
330
8C
100
AcDbEntity
  8
FORMAT
 62
     0
100
AcDbLine
 10
0.0
 20
0.0
 30
0.0
 11
-2.5
 21
0.0
 31
0.0
  0
LINE
  5
91
330
8C
100
AcDbEntity
  8
FORMAT
 62
     0
100
AcDbLine
 10
0.0
 20
0.0
 30
0.0
 11
0.0
 21
-2.5
 31
0.0
  0
LINE
  5
92
330
8C
100
AcDbEntity
  8
FORMAT
 62
     0
100
AcDbLine
 10
0.0
 20
0.0
 30
0.0
 11
2.5
 21
0.0
 31
0.0
  0
LINE
  5
93
330
8C
100
AcDbEntity
  8
FORMAT
 62
     0
100
AcDbLine
 10
0.0
 20
5.0
 30
0.0
 11
0.0
 21
60.0
 31
0.0
  0
LINE
  5
94
330
8C
100
AcDbEntity
  8
FORMAT
 62
     0
100
AcDbLine
 10
-5.0
 20
0.0
 30
0.0
 11
-60.0
 21
0.0
 31
0.0
  0
LINE
  5
95
330
8C
100
AcDbEntity
  8
FORMAT
 62
     0
100
AcDbLine
 10
0.0
 20
-5.0
 30
0.0
 11
0.0
 21
-60.0
 31
0.0
  0
LINE
  5
96
330
8C
100
AcDbEntity
  8
FORMAT
 62
     0
100
AcDbLine
 10
5.0
 20
0.0
 30
0.0
 11
60.0
 21
0.0
 31
0.0
  0
ENDBLK
  5
8E
330
8C
100
AcDbEntity
  8
0
100
AcDbBlockEnd
  0
BLOCK
  5
C7
330
C6
100
AcDbEntity
  8
0
100
AcDbBlockBegin
  2
SW_CENTERMARKSYMBOL_1
 70
     0
 10
0.0
 20
0.0
 30
0.0
  3
SW_CENTERMARKSYMBOL_1
  1

  0
LINE
  5
C9
330
C6
100
AcDbEntity
  8
FORMAT
 62
     0
100
AcDbLine
 10
0.0
 20
0.0
 30
0.0
 11
0.0
 21
2.5
 31
0.0
  0
LINE
  5
CA
330
C6
100
AcDbEntity
  8
FORMAT
 62
     0
100
AcDbLine
 10
0.0
 20
0.0
 30
0.0
 11
-2.5
 21
0.0
 31
0.0
  0
LINE
  5
CB
330
C6
100
AcDbEntity
  8
FORMAT
 62
     0
100
AcDbLine
 10
0.0
 20
0.0
 30
0.0
 11
0.0
 21
-2.5
 31
0.0
  0
LINE
  5
CC
330
C6
100
AcDbEntity
  8
FORMAT
 62
     0
100
AcDbLine
 10
0.0
 20
0.0
 30
0.0
 11
2.5
 21
0.0
 31
0.0
  0
LINE
  5
CD
330
C6
100
AcDbEntity
  8
FORMAT
 62
     0
100
AcDbLine
 10
0.0
 20
5.0
 30
0.0
 11
0.0
 21
9.5
 31
0.0
  0
LINE
  5
CE
330
C6
100
AcDbEntity
  8
FORMAT
 62
     0
100
AcDbLine
 10
-5.0
 20
0.0
 30
0.0
 11
-9.5
 21
0.0
 31
0.0
  0
LINE
  5
CF
330
C6
100
AcDbEntity
  8
FORMAT
 62
     0
100
AcDbLine
 10
0.0
 20
-5.0
 30
0.0
 11
0.0
 21
-9.5
 31
0.0
  0
LINE
  5
D0
330
C6
100
AcDbEntity
  8
FORMAT
 62
     0
100
AcDbLine
 10
5.0
 20
0.0
 30
0.0
 11
9.5
 21
0.0
 31
0.0
  0
ENDBLK
  5
C8
330
C6
100
AcDbEntity
  8
0
100
AcDbBlockEnd
  0
BLOCK
  5
D3
330
D2
100
AcDbEntity
  8
0
100
AcDbBlockBegin
  2
SW_CENTERMARKSYMBOL_2
 70
     0
 10
0.0
 20
0.0
 30
0.0
  3
SW_CENTERMARKSYMBOL_2
  1

  0
LINE
  5
D5
330
D2
100
AcDbEntity
  8
FORMAT
 62
     0
100
AcDbLine
 10
0.0
 20
0.0
 30
0.0
 11
0.0
 21
2.5
 31
0.0
  0
LINE
  5
D6
330
D2
100
AcDbEntity
  8
FORMAT
 62
     0
100
AcDbLine
 10
0.0
 20
0.0
 30
0.0
 11
-2.5
 21
0.0
 31
0.0
  0
LINE
  5
D7
330
D2
100
AcDbEntity
  8
FORMAT
 62
     0
100
AcDbLine
 10
0.0
 20
0.0
 30
0.0
 11
0.0
 21
-2.5
 31
0.0
  0
LINE
  5
D8
330
D2
100
AcDbEntity
  8
FORMAT
 62
     0
100
AcDbLine
 10
0.0
 20
0.0
 30
0.0
 11
2.5
 21
0.0
 31
0.0
  0
LINE
  5
D9
330
D2
100
AcDbEntity
  8
FORMAT
 62
     0
100
AcDbLine
 10
0.0
 20
5.0
 30
0.0
 11
0.0
 21
9.5
 31
0.0
  0
LINE
  5
DA
330
D2
100
AcDbEntity
  8
FORMAT
 62
     0
100
AcDbLine
 10
-5.0
 20
0.0
 30
0.0
 11
-9.5
 21
0.0
 31
0.0
  0
LINE
  5
DB
330
D2
100
AcDbEntity
  8
FORMAT
 62
     0
100
AcDbLine
 10
0.0
 20
-5.0
 30
0.0
 11
0.0
 21
-9.5
 31
0.0
  0
LINE
  5
DC
330
D2
100
AcDbEntity
  8
FORMAT
 62
     0
100
AcDbLine
 10
5.0
 20
0.0
 30
0.0
 11
9.5
 21
0.0
 31
0.0
  0
ENDBLK
  5
D4
330
D2
100
AcDbEntity
  8
0
100
AcDbBlockEnd
  0
ENDSEC
  0
SECTION
  2
ENTITIES
  0
LINE
  5
83
330
1F
100
AcDbEntity
  8
0
  6
Continuous
 62
     7
370
    25
100
AcDbLine
 10
129.1701403815
 20
60.6002873944
 30
0.0
 11
129.1701403815
 21
39.6754170122
 31
0.0
  0
LINE
  5
84
330
1F
100
AcDbEntity
  8
0
  6
Continuous
 62
     7
370
    25
100
AcDbLine
 10
143.1701403815
 20
39.6754170122
 30
0.0
 11
143.1701403815
 21
60.603032191
 31
0.0
  0
CIRCLE
  5
85
330
1F
100
AcDbEntity
  8
0
  6
Continuous
 62
     7
370
    25
100
AcDbCircle
 10
136.1701403815
 20
117.6754170122
 30
0.0
 40
57.50000000000001
  0
CIRCLE
  5
86
330
1F
100
AcDbEntity
  8
0
  6
Continuous
 62
     7
370
    25
100
AcDbCircle
 10
136.1701403815
 20
117.6754170122
 30
0.0
 40
44.99999999999999
  0
LINE
  5
87
330
1F
100
AcDbEntity
  8
0
  6
Continuous
 62
     7
370
    25
100
AcDbLine
 10
136.1701403815
 20
39.6754170122
 30
0.0
 11
143.1701403815
 21
39.6754170122
 31
0.0
  0
LINE
  5
88
330
1F
100
AcDbEntity
  8
0
  6
Continuous
 62
     7
370
    25
100
AcDbLine
 10
129.1701403815
 20
39.6754170122
 30
0.0
 11
136.1701403815
 21
39.6754170122
 31
0.0
  0
CIRCLE
  5
89
330
1F
100
AcDbEntity
  8
0
  6
Continuous
 62
     7
370
    25
100
AcDbCircle
 10
136.1701403815
 20
117.6754170122
 30
0.0
 40
43.44564960300427
  0
CIRCLE
  5
8A
330
1F
100
AcDbEntity
  8
0
  6
Continuous
 62
     7
370
    25
100
AcDbCircle
 10
136.1701403815
 20
117.6754170122
 30
0.0
 40
33.05435039699572
  0
CIRCLE
  5
8B
330
1F
100
AcDbEntity
  8
0
  6
Continuous
 62
     7
370
    25
100
AcDbCircle
 10
136.1701403815
 20
117.6754170122
 30
0.0
 40
31.5
  0
INSERT
  5
97
330
1F
100
AcDbEntity
  8
FORMAT
 62
     7
100
AcDbBlockReference
  2
SW_CENTERMARKSYMBOL_0
 10
136.1701403815
 20
117.6754170122
 30
0.0
  0
LINE
  5
98
330
1F
100
AcDbEntity
  8
0
  6
Continuous
 62
     7
370
    25
100
AcDbLine
 10
-36.1202792488
 20
175.1754170122
 30
0.0
 11
-100.5258423264
 21
175.1754170122
 31
0.0
  0
LINE
  5
99
330
1F
100
AcDbEntity
  8
0
  6
Continuous
 62
     7
370
    25
100
AcDbLine
 10
-85.5467502343
 20
60.1754170122
 30
0.0
 11
-36.1202792488
 21
60.1754170122
 31
0.0
  0
LINE
  5
9A
330
1F
100
AcDbEntity
  8
0
  6
Continuous
 62
     7
370
    25
100
AcDbLine
 10
-100.5258423264
 20
60.1754170122
 30
0.0
 11
-99.5258423264
 21
60.1754170122
 31
0.0
  0
ARC
  5
9B
330
1F
100
AcDbEntity
  8
0
  6
Continuous
 62
     7
370
    25
100
AcDbCircle
 10
-36.1202792488
 20
173.1754170122
 30
0.0
 40
2.0
100
AcDbArc
 50
12.8750015596
 51
90.0
  0
ARC
  5
9C
330
1F
100
AcDbEntity
  8
0
  6
Continuous
 62
     7
370
    25
100
AcDbCircle
 10
-36.1202792488
 20
62.1754170122
 30
0.0
 40
2.0
100
AcDbArc
 50
270.0
 51
347.1249984404
  0
LINE
  5
9D
330
1F
100
AcDbEntity
  8
0
  6
Continuous
 62
     7
370
    25
100
AcDbLine
 10
-34.1705622356
 20
61.7297674092
 30
0.0
 11
-30.8811224171
 21
76.1210666152
 31
0.0
  0
LINE
  5
9E
330
1F
100
AcDbEntity
  8
0
  6
Continuous
 62
     7
370
    25
100
AcDbLine
 10
-30.8811224171
 20
159.2297674092
 30
0.0
 11
-34.1705622356
 21
173.6210666152
 31
0.0
  0
ARC
  5
9F
330
1F
100
AcDbEntity
  8
0
  6
Continuous
 62
     7
370
    25
100
AcDbCircle
 10
-28.9314054039
 20
159.6754170122
 30
0.0
 40
2.000000000000006
100
AcDbArc
 50
192.8750015596
 51
270.0
  0
ARC
  5
A0
330
1F
100
AcDbEntity
  8
0
  6
Continuous
 62
     7
370
    25
100
AcDbCircle
 10
-28.9314054039
 20
75.6754170122
 30
0.0
 40
2.000000000000014
100
AcDbArc
 50
90.0
 51
167.1249984404
  0
LINE
  5
A1
330
1F
100
AcDbEntity
  8
0
  6
Continuous
 62
     7
370
    25
100
AcDbLine
 10
29.4741576736
 20
157.6754170122
 30
0.0
 11
-28.9314054039
 21
157.6754170122
 31
0.0
  0
LINE
  5
A2
330
1F
100
AcDbEntity
  8
0
  6
Continuous
 62
     7
370
    25
100
AcDbLine
 10
28.4553227242
 20
77.6754170122
 30
0.0
 11
29.4741576736
 21
77.6754170122
 31
0.0
  0
LINE
  5
A3
330
1F
100
AcDbEntity
  8
0
  6
Continuous
 62
     7
370
    25
100
AcDbLine
 10
-28.9314054039
 20
77.6754170122
 30
0.0
 11
14.4741576736
 21
77.6754170122
 31
0.0
  0
LINE
  5
A4
330
1F
100
AcDbEntity
  8
0
  6
Continuous
 62
     7
370
    25
100
AcDbLine
 10
14.4741576736
 20
77.6754170122
 30
0.0
 11
14.4741576736
 21
61.1754170122
 31
0.0
  0
LINE
  5
A5
330
1F
100
AcDbEntity
  8
0
  6
Continuous
 62
     7
370
    25
100
AcDbLine
 10
28.4741576736
 20
61.1754170122
 30
0.0
 11
28.4741576736
 21
77.678699772
 31
0.0
  0
LINE
  5
A6
330
1F
100
AcDbEntity
  8
0
  6
Continuous
 62
     7
370
    25
100
AcDbLine
 10
-99.5258423264
 20
60.1754170122
 30
0.0
 11
-99.5258423264
 21
39.6754170122
 31
0.0
  0
LINE
  5
A7
330
1F
100
AcDbEntity
  8
0
  6
Continuous
 62
     7
370
    25
100
AcDbLine
 10
-85.5258423264
 20
39.6754170122
 30
0.0
 11
-85.5258423264
 21
60.1779541698
 31
0.0
  0
LINE
  5
A8
330
1F
100
AcDbEntity
  8
0
  6
Continuous
 62
     7
370
    25
100
AcDbLine
 10
-100.5258423264
 20
175.1754170122
 30
0.0
 11
-100.5258423264
 21
60.1754170122
 31
0.0
  0
SPLINE
  5
A9
330
1F
100
AcDbEntity
  8
0
  6
Continuous
 62
     7
370
    25
100
AcDbSpline
210
0.0
220
0.0
230
1.0
 70
     8
 71
     3
 72
    26
 73
    22
 74
     0
 42
0.00000001
 43
0.00000001
 40
0.0
 40
0.0
 40
0.0
 40
0.0
 40
0.0169113680911345
 40
0.0711192847913004
 40
0.1236381287551944
 40
0.1776659738710037
 40
0.2304452830507368
 40
0.284738764474294
 40
0.3377915513182878
 40
0.3923897407406049
 40
0.4453012394283299
 40
0.4997671973455007
 40
0.5523388032242283
 40
0.6064367113507557
 40
0.659001816293924
 40
0.7130725329442826
 40
0.7659723751895164
 40
0.8203961390378782
 40
0.8734521233022368
 40
0.9280611930181352
 40
1.0
 40
1.0
 40
1.0
 40
1.0
 10
-85.54675023427316
 20
60.17795637111426
 30
0.0
 10
-85.54090094949468
 20
60.17724606974564
 30
0.0
 10
-85.51630229208592
 20
60.17425895923813
 30
0.0
 10
-85.67374688404247
 20
60.19343181240959
 30
0.0
 10
-86.01928513437548
 20
60.23393359877835
 30
0.0
 10
-86.5565336619375
 20
60.29289230737102
 30
0.0
 10
-87.26378895612734
 20
60.36277573250145
 30
0.0
 10
-88.11571601353023
 20
60.43542364518725
 30
0.0
 10
-89.10251185625529
 20
60.50363582603647
 30
0.0
 10
-90.1790560325845
 20
60.55852338715483
 30
0.0
 10
-91.33230978634468
 20
60.59460732608575
 30
0.0
 10
-92.50588223353593
 20
60.60718317555605
 30
0.0
 10
-93.6880661722841
 20
60.59521264539723
 30
0.0
 10
-94.82393486932061
 20
60.56045179197329
 30
0.0
 10
-95.90455708566766
 20
60.50627273091777
 30
0.0
 10
-96.88281567910548
 20
60.43949741352678
 30
0.0
 10
-97.74833865377491
 20
60.36646577424172
 30
0.0
 10
-98.46284484976478
 20
60.29625133540123
 30
0.0
 10
-99.01114976862712
 20
60.23642948461466
 30
0.0
 10
-99.4318464811699
 20
60.18701495114939
 30
0.0
 10
-99.4917748068673
 20
60.17962052792603
 30
0.0
 10
-99.52584232635157
 20
60.17541701223782
 30
0.0
  0
SPLINE
  5
AA
330
1F
100
AcDbEntity
  8
0
  6
Continuous
 62
     7
370
    25
100
AcDbSpline
210
0.0
220
0.0
230
1.0
 70
     8
 71
     3
 72
    26
 73
    22
 74
     0
 42
0.00000001
 43
0.00000001
 40
0.0
 40
0.0
 40
0.0
 40
0.0
 40
0.0142484644275623
 40
0.068204785470534
 40
0.120291872252709
 40
0.173862303088535
 40
0.226459486335163
 40
0.2805475599452511
 40
0.3337266108351129
 40
0.3884598919559004
 40
0.44138312639682
 40
0.4958835309922008
 40
0.5480923534488623
 40
0.6018209588757737
 40
0.6539787920249517
 40
0.70761148572051
 40
0.7604510402235319
 40
0.8147999241716333
 40
0.8680009186374213
 40
0.9227729532218945
 40
1.0
 40
1.0
 40
1.0
 40
1.0
 10
28.45532272422708
 20
77.6787042944389
 30
0.0
 10
28.46087174375867
 20
77.67773594533999
 30
0.0
 10
28.48743388234205
 20
77.67310063583777
 30
0.0
 10
28.3391411854691
 20
77.69907689669743
 30
0.0
 10
28.00754419481936
 20
77.75513499252544
 30
0.0
 10
27.48524358162506
 20
77.83809032785875
 30
0.0
 10
26.79382213993713
 20
77.93742596728339
 30
0.0
 10
25.95474473818985
 20
78.04206763633476
 30
0.0
 10
24.97732634694586
 20
78.14161959210759
 30
0.0
 10
23.90559916453137
 20
78.2229458633441
 30
0.0
 10
22.75445418805067
 20
78.2776413883565
 30
0.0
 10
21.58341122321213
 20
78.29843454670778
 30
0.0
 10
20.40407179164734
 20
78.2838224540334
 30
0.0
 10
19.27182013107848
 20
78.23634100200367
 30
0.0
 10
18.19249881442468
 20
78.1606616305395
 30
0.0
 10
17.21018841668609
 20
78.06612565763301
 30
0.0
 10
16.33488343245583
 20
77.96146120091433
 30
0.0
 10
15.60457813418783
 20
77.85938017269754
 30
0.0
 10
15.03723267929746
 20
77.77107902613325
 30
0.0
 10
14.58047979330263
 20
77.69431065363798
 30
0.0
 10
14.51340202320004
 20
77.682390807247
 30
0.0
 10
14.47415767364845
 20
77.67541701223782
 30
0.0
  0
LINE
  5
AB
330
1F
100
AcDbEntity
  8
0
  6
Continuous
 62
     7
370
    25
100
AcDbLine
 10
29.4741576736
 20
157.6754170122
 30
0.0
 11
29.4741576736
 21
77.6754170122
 31
0.0
  0
LINE
  5
AC
330
1F
100
AcDbEntity
  8
0
  6
Continuous
 62
     7
370
    25
100
AcDbLine
 10
14.4741576736
 20
61.1754170122
 30
0.0
 11
28.4741576736
 21
61.1754170122
 31
0.0
  0
LINE
  5
AD
330
1F
100
AcDbEntity
  8
0
  6
Continuous
 62
     7
370
    25
100
AcDbLine
 10
-99.5258423264
 20
39.6754170122
 30
0.0
 11
-85.5258423264
 21
39.6754170122
 31
0.0
  0
LINE
  5
AE
330
1F
100
AcDbEntity
  8
0
  6
Continuous
 62
     1
370
    25
100
AcDbLine
 10
-36.1202792488
 20
175.1754170122
 30
0.0
 11
-36.1202792488
 21
60.1754170122
 31
0.0
  0
LINE
  5
AF
330
1F
100
AcDbEntity
  8
0
  6
Continuous
 62
     1
370
    25
100
AcDbLine
 10
-34.1705622356
 20
173.6210666152
 30
0.0
 11
-34.1705622356
 21
61.7297674092
 31
0.0
  0
LINE
  5
B0
330
1F
100
AcDbEntity
  8
0
  6
Continuous
 62
     1
370
    25
100
AcDbLine
 10
-30.8811224171
 20
159.2297674092
 30
0.0
 11
-30.8811224171
 21
76.1210666152
 31
0.0
  0
LINE
  5
B1
330
1F
100
AcDbEntity
  8
0
  6
Continuous
 62
     1
370
    25
100
AcDbLine
 10
-28.9314054039
 20
157.6754170122
 30
0.0
 11
-28.9314054039
 21
77.6754170122
 31
0.0
  0
ARC
  5
B2
330
1F
100
AcDbEntity
  8
0
  6
Continuous
 62
     7
370
    25
100
AcDbCircle
 10
191.6701403815
 20
286.1971568602
 30
0.0
 40
2.0
100
AcDbArc
 50
282.8750015596
 51
0.0
  0
ARC
  5
B3
330
1F
100
AcDbEntity
  8
0
  6
Continuous
 62
     7
370
    25
100
AcDbCircle
 10
80.6701403815
 20
286.1971568602
 30
0.0
 40
2.0
100
AcDbArc
 50
180.0
 51
257.1249984404
  0
LINE
  5
B4
330
1F
100
AcDbEntity
  8
0
  6
Continuous
 62
     7
370
    25
100
AcDbLine
 10
193.6701403815
 20
286.1971568602
 30
0.0
 11
193.6701403815
 21
350.6027199378
 31
0.0
  0
LINE
  5
B5
330
1F
100
AcDbEntity
  8
0
  6
Continuous
 62
     7
370
    25
100
AcDbLine
 10
78.6701403815
 20
350.6027199378
 30
0.0
 11
78.6701403815
 21
286.1971568602
 31
0.0
  0
LINE
  5
B6
330
1F
100
AcDbEntity
  8
0
  6
Continuous
 62
     7
370
    25
100
AcDbLine
 10
80.2244907785
 20
284.2474398471
 30
0.0
 11
94.6157899845
 21
280.9580000286
 31
0.0
  0
LINE
  5
B7
330
1F
100
AcDbEntity
  8
0
  6
Continuous
 62
     7
370
    25
100
AcDbLine
 10
177.7244907785
 20
280.9580000286
 30
0.0
 11
192.1157899845
 21
284.2474398471
 31
0.0
  0
ARC
  5
B8
330
1F
100
AcDbEntity
  8
0
  6
Continuous
 62
     7
370
    25
100
AcDbCircle
 10
178.1701403815
 20
279.0082830154
 30
0.0
 40
2.000000000000013
100
AcDbArc
 50
102.8750015596
 51
180.0
  0
ARC
  5
B9
330
1F
100
AcDbEntity
  8
0
  6
Continuous
 62
     7
370
    25
100
AcDbCircle
 10
94.1701403815
 20
279.0082830154
 30
0.0
 40
2.00000000000002
100
AcDbArc
 50
0.0
 51
77.1249984404
  0
LINE
  5
BA
330
1F
100
AcDbEntity
  8
0
  6
Continuous
 62
     7
370
    25
100
AcDbLine
 10
176.1701403815
 20
220.6027199378
 30
0.0
 11
176.1701403815
 21
279.0082830154
 31
0.0
  0
LINE
  5
BB
330
1F
100
AcDbEntity
  8
0
  6
Continuous
 62
     7
370
    25
100
AcDbLine
 10
96.1701403815
 20
279.0082830154
 30
0.0
 11
96.1701403815
 21
220.6027199378
 31
0.0
  0
CIRCLE
  5
BC
330
1F
100
AcDbEntity
  8
0
  6
Continuous
 62
     7
370
    25
100
AcDbCircle
 10
136.1701403815
 20
342.6027199378
 30
0.0
 40
7.0
  0
CIRCLE
  5
BD
330
1F
100
AcDbEntity
  8
0
  6
Continuous
 62
     7
370
    25
100
AcDbCircle
 10
136.1701403815
 20
342.6027199378
 30
0.0
 40
5.0
  0
LINE
  5
BE
330
1F
100
AcDbEntity
  8
0
  6
Continuous
 62
     7
370
    25
100
AcDbLine
 10
193.6701403815
 20
350.6027199378
 30
0.0
 11
78.6701403815
 21
350.6027199378
 31
0.0
  0
CIRCLE
  5
BF
330
1F
100
AcDbEntity
  8
0
  6
Continuous
 62
     7
370
    25
100
AcDbCircle
 10
136.1701403815
 20
228.6027199378
 30
0.0
 40
7.000000000000028
  0
CIRCLE
  5
C0
330
1F
100
AcDbEntity
  8
0
  6
Continuous
 62
     7
370
    25
100
AcDbCircle
 10
136.1701403815
 20
228.6027199378
 30
0.0
 40
5.000000000000028
  0
LINE
  5
C1
330
1F
100
AcDbEntity
  8
0
  6
Continuous
 62
     7
370
    25
100
AcDbLine
 10
176.1701403815
 20
220.6027199378
 30
0.0
 11
96.1701403815
 21
220.6027199378
 31
0.0
  0
LINE
  5
C2
330
1F
100
AcDbEntity
  8
0
  6
Continuous
 62
     1
370
    25
100
AcDbLine
 10
192.1157899845
 20
284.2474398471
 30
0.0
 11
80.2244907785
 21
284.2474398471
 31
0.0
  0
LINE
  5
C3
330
1F
100
AcDbEntity
  8
0
  6
Continuous
 62
     1
370
    25
100
AcDbLine
 10
193.6701403815
 20
286.1971568602
 30
0.0
 11
78.6701403815
 21
286.1971568602
 31
0.0
  0
LINE
  5
C4
330
1F
100
AcDbEntity
  8
0
  6
Continuous
 62
     1
370
    25
100
AcDbLine
 10
177.7244907785
 20
280.9580000286
 30
0.0
 11
94.6157899845
 21
280.9580000286
 31
0.0
  0
LINE
  5
C5
330
1F
100
AcDbEntity
  8
0
  6
Continuous
 62
     1
370
    25
100
AcDbLine
 10
176.1701403815
 20
279.0082830154
 30
0.0
 11
96.1701403815
 21
279.0082830154
 31
0.0
  0
INSERT
  5
D1
330
1F
100
AcDbEntity
  8
FORMAT
 62
     7
100
AcDbBlockReference
  2
SW_CENTERMARKSYMBOL_1
 10
136.1701403815
 20
228.6027199378
 30
0.0
  0
INSERT
  5
DD
330
1F
100
AcDbEntity
  8
FORMAT
 62
     7
100
AcDbBlockReference
  2
SW_CENTERMARKSYMBOL_2
 10
136.1701403815
 20
342.6027199378
 30
0.0
  0
LINE
  5
DE
330
1F
100
AcDbEntity
  8
0
  6
Continuous
 62
     7
370
    25
100
AcDbLine
 10
356.3136230752
 20
60.1754170122
 30
0.0
 11
357.3136230752
 21
60.1754170122
 31
0.0
  0
LINE
  5
DF
330
1F
100
AcDbEntity
  8
0
  6
Continuous
 62
     7
370
    25
100
AcDbLine
 10
292.9080599977
 20
60.1754170122
 30
0.0
 11
342.3345309832
 21
60.1754170122
 31
0.0
  0
LINE
  5
E0
330
1F
100
AcDbEntity
  8
0
  6
Continuous
 62
     7
370
    25
100
AcDbLine
 10
357.3136230752
 20
175.1754170122
 30
0.0
 11
292.9080599977
 21
175.1754170122
 31
0.0
  0
ARC
  5
E1
330
1F
100
AcDbEntity
  8
0
  6
Continuous
 62
     7
370
    25
100
AcDbCircle
 10
292.9080599977
 20
62.1754170122
 30
0.0
 40
2.000000000000021
100
AcDbArc
 50
192.8750015596
 51
270.0
  0
ARC
  5
E2
330
1F
100
AcDbEntity
  8
0
  6
Continuous
 62
     7
370
    25
100
AcDbCircle
 10
292.9080599977
 20
173.1754170122
 30
0.0
 40
2.000000000000013
100
AcDbArc
 50
90.0
 51
167.1249984404
  0
LINE
  5
E3
330
1F
100
AcDbEntity
  8
0
  6
Continuous
 62
     7
370
    25
100
AcDbLine
 10
290.9583429845
 20
173.6210666152
 30
0.0
 11
287.668903166
 21
159.2297674092
 31
0.0
  0
LINE
  5
E4
330
1F
100
AcDbEntity
  8
0
  6
Continuous
 62
     7
370
    25
100
AcDbLine
 10
287.668903166
 20
76.1210666152
 30
0.0
 11
290.9583429845
 21
61.7297674092
 31
0.0
  0
ARC
  5
E5
330
1F
100
AcDbEntity
  8
0
  6
Continuous
 62
     7
370
    25
100
AcDbCircle
 10
285.7191861528
 20
75.6754170122
 30
0.0
 40
2.000000000000023
100
AcDbArc
 50
12.8750015596
 51
90.0
  0
ARC
  5
E6
330
1F
100
AcDbEntity
  8
0
  6
Continuous
 62
     7
370
    25
100
AcDbCircle
 10
285.7191861528
 20
159.6754170122
 30
0.0
 40
2.000000000000013
100
AcDbArc
 50
270.0
 51
347.1249984404
  0
LINE
  5
E7
330
1F
100
AcDbEntity
  8
0
  6
Continuous
 62
     7
370
    25
100
AcDbLine
 10
242.3136230752
 20
77.6754170122
 30
0.0
 11
285.7191861528
 21
77.6754170122
 31
0.0
  0
LINE
  5
E8
330
1F
100
AcDbEntity
  8
0
  6
Continuous
 62
     7
370
    25
100
AcDbLine
 10
227.3136230752
 20
77.6754170122
 30
0.0
 11
228.3324580247
 21
77.6754170122
 31
0.0
  0
LINE
  5
E9
330
1F
100
AcDbEntity
  8
0
  6
Continuous
 62
     7
370
    25
100
AcDbLine
 10
285.7191861528
 20
157.6754170122
 30
0.0
 11
227.3136230752
 21
157.6754170122
 31
0.0
  0
LINE
  5
EA
330
1F
100
AcDbEntity
  8
0
  6
Continuous
 62
     7
370
    25
100
AcDbLine
 10
228.3136230752
 20
77.678699772
 30
0.0
 11
228.3136230752
 21
61.1754170122
 31
0.0
  0
LINE
  5
EB
330
1F
100
AcDbEntity
  8
0
  6
Continuous
 62
     7
370
    25
100
AcDbLine
 10
242.3136230752
 20
61.1754170122
 30
0.0
 11
242.3136230752
 21
77.6754170122
 31
0.0
  0
LINE
  5
EC
330
1F
100
AcDbEntity
  8
0
  6
Continuous
 62
     7
370
    25
100
AcDbLine
 10
342.3136230752
 20
60.1779541698
 30
0.0
 11
342.3136230752
 21
39.6754170122
 31
0.0
  0
LINE
  5
ED
330
1F
100
AcDbEntity
  8
0
  6
Continuous
 62
     7
370
    25
100
AcDbLine
 10
356.3136230752
 20
39.6754170122
 30
0.0
 11
356.3136230752
 21
60.1754170122
 31
0.0
  0
LINE
  5
EE
330
1F
100
AcDbEntity
  8
0
  6
Continuous
 62
     7
370
    25
100
AcDbLine
 10
357.3136230752
 20
117.6754170122
 30
0.0
 11
357.3136230752
 21
175.1754170122
 31
0.0
  0
LINE
  5
EF
330
1F
100
AcDbEntity
  8
0
  6
Continuous
 62
     7
370
    25
100
AcDbLine
 10
357.3136230752
 20
60.1754170122
 30
0.0
 11
357.3136230752
 21
117.6754170122
 31
0.0
  0
SPLINE
  5
F0
330
1F
100
AcDbEntity
  8
0
  6
Continuous
 62
     7
370
    25
100
AcDbSpline
210
0.0
220
0.0
230
1.0
 70
     8
 71
     3
 72
    26
 73
    22
 74
     0
 42
0.00000001
 43
0.00000001
 40
0.0
 40
0.0
 40
0.0
 40
0.0
 40
0.0526585767934889
 40
0.1068511181112636
 40
0.1595077507913573
 40
0.2136782661493133
 40
0.2665760010310215
 40
0.3209975684968576
 40
0.3740520351484511
 40
0.4286596155917314
 40
0.48144762992613
 40
0.5357832501593256
 40
0.5882970276490358
 40
0.642326565530856
 40
0.6949859821444977
 40
0.7491529892105455
 40
0.8021498882721113
 40
0.8566820203706629
 40
0.9096840020283833
 40
0.9642420731930176
 40
1.0
 40
1.0
 40
1.0
 40
1.0
 10
356.3136230752489
 20
60.1754170122378
 30
0.0
 10
356.2950795920973
 20
60.17768952390258
 30
0.0
 10
356.2574524470226
 20
60.18230074636786
 30
0.0
 10
355.954843932351
 20
60.21842561963923
 30
0.0
 10
355.4764229623719
 20
60.27221833425544
 30
0.0
 10
354.825790165813
 20
60.33907490792002
 30
0.0
 10
354.0133841437428
 20
60.41213971333708
 30
0.0
 10
353.0733352607504
 20
60.4823107048362
 30
0.0
 10
352.0159074812692
 20
60.54265606954594
 30
0.0
 10
350.8912710391734
 20
60.58520224596095
 30
0.0
 10
349.7126515043263
 20
60.60578365334861
 30
0.0
 10
348.5373245051164
 20
60.60183863215588
 30
0.0
 10
347.3757720912403
 20
60.57394338427148
 30
0.0
 10
346.2804514487275
 20
60.52582691679875
 30
0.0
 10
345.2603142208782
 20
60.46203585320899
 30
0.0
 10
344.3599400753855
 20
60.39053213692347
 30
0.0
 10
343.590438760525
 20
60.31822533986306
 30
0.0
 10
342.9857374924304
 20
60.25409961303838
 30
0.0
 10
342.5634601277986
 20
60.20561606583134
 30
0.0
 10
342.3356589086417
 20
60.17810918688748
 30
0.0
 10
342.3348508929101
 20
60.17799971374232
 30
0.0
 10
342.3345309831706
 20
60.17795637111424
 30
0.0
  0
SPLINE
  5
F1
330
1F
100
AcDbEntity
  8
0
  6
Continuous
 62
     7
370
    25
100
AcDbSpline
210
0.0
220
0.0
230
1.0
 70
     8
 71
     3
 72
    26
 73
    22
 74
     0
 42
0.00000001
 43
0.00000001
 40
0.0
 40
0.0
 40
0.0
 40
0.0
 40
0.05237446859372
 40
0.1062818262333994
 40
0.1586523694408184
 40
0.2125152249020935
 40
0.2653744664375879
 40
0.319745044219374
 40
0.3729395875070171
 40
0.4277066401178667
 40
0.4803558846474326
 40
0.534567502367916
 40
0.5866393909786176
 40
0.6402072654921829
 40
0.6925696019047071
 40
0.7464103371621768
 40
0.799474139302645
 40
0.8540722881615838
 40
0.9071646812192987
 40
0.9618359470163519
 40
1.0
 40
1.0
 40
1.0
 40
1.0
 10
242.313623075249
 20
77.6754170122378
 30
0.0
 10
242.2952394894035
 20
77.67865504383549
 30
0.0
 10
242.2579342693443
 20
77.68522587731302
 30
0.0
 10
241.9580586239574
 20
77.7367112036472
 30
0.0
 10
241.4843881237425
 20
77.81341903056811
 30
0.0
 10
240.8397153233694
 20
77.90903961271283
 30
0.0
 10
240.0333336829265
 20
78.014031165191
 30
0.0
 10
239.0967491060528
 20
78.11557107858545
 30
0.0
 10
238.0403211144596
 20
78.20346453111327
 30
0.0
 10
236.915446799259
 20
78.26577713683234
 30
0.0
 10
235.7371266925191
 20
78.29630211512804
 30
0.0
 10
234.5656186692626
 20
78.29136092524091
 30
0.0
 10
233.4096898649896
 20
78.252020825434
 30
0.0
 10
232.3202319973303
 20
78.1837692692325
 30
0.0
 10
231.3035028171722
 20
78.09290387448979
 30
0.0
 10
230.4012443650875
 20
77.990407777997
 30
0.0
 10
229.6256658996127
 20
77.88605518363094
 30
0.0
 10
229.0119676915475
 20
77.79278716568274
 30
0.0
 10
228.5791202510031
 20
77.7215034478169
 30
0.0
 10
228.3404024850484
 20
77.6801214242259
 30
0.0
 10
228.3347724846766
 20
77.67911714692472
 30
0.0
 10
228.3324580246703
 20
77.67870429443889
 30
0.0
  0
LINE
  5
F2
330
1F
100
AcDbEntity
  8
0
  6
Continuous
 62
     7
370
    25
100
AcDbLine
 10
227.3136230752
 20
117.6754170122
 30
0.0
 11
227.3136230752
 21
157.6754170122
 31
0.0
  0
LINE
  5
F3
330
1F
100
AcDbEntity
  8
0
  6
Continuous
 62
     7
370
    25
100
AcDbLine
 10
227.3136230752
 20
77.6754170122
 30
0.0
 11
227.3136230752
 21
117.6754170122
 31
0.0
  0
LINE
  5
F4
330
1F
100
AcDbEntity
  8
0
  6
Continuous
 62
     7
370
    25
100
AcDbLine
 10
228.3136230752
 20
61.1754170122
 30
0.0
 11
242.3136230752
 21
61.1754170122
 31
0.0
  0
LINE
  5
F5
330
1F
100
AcDbEntity
  8
0
  6
Continuous
 62
     7
370
    25
100
AcDbLine
 10
342.3136230752
 20
39.6754170122
 30
0.0
 11
356.3136230752
 21
39.6754170122
 31
0.0
  0
LINE
  5
F6
330
1F
100
AcDbEntity
  8
0
  6
Continuous
 62
     1
370
    25
100
AcDbLine
 10
292.9080599977
 20
117.6754170122
 30
0.0
 11
292.9080599977
 21
175.1754170122
 31
0.0
  0
LINE
  5
F7
330
1F
100
AcDbEntity
  8
0
  6
Continuous
 62
     1
370
    25
100
AcDbLine
 10
292.9080599977
 20
60.1754170122
 30
0.0
 11
292.9080599977
 21
117.6754170122
 31
0.0
  0
LINE
  5
F8
330
1F
100
AcDbEntity
  8
0
  6
Continuous
 62
     1
370
    25
100
AcDbLine
 10
290.9583429845
 20
117.6754170122
 30
0.0
 11
290.9583429845
 21
173.6210666152
 31
0.0
  0
LINE
  5
F9
330
1F
100
AcDbEntity
  8
0
  6
Continuous
 62
     1
370
    25
100
AcDbLine
 10
290.9583429845
 20
61.7297674092
 30
0.0
 11
290.9583429845
 21
117.6754170122
 31
0.0
  0
LINE
  5
FA
330
1F
100
AcDbEntity
  8
0
  6
Continuous
 62
     1
370
    25
100
AcDbLine
 10
287.668903166
 20
117.6754170122
 30
0.0
 11
287.668903166
 21
159.2297674092
 31
0.0
  0
LINE
  5
FB
330
1F
100
AcDbEntity
  8
0
  6
Continuous
 62
     1
370
    25
100
AcDbLine
 10
287.668903166
 20
76.1210666152
 30
0.0
 11
287.668903166
 21
117.6754170122
 31
0.0
  0
LINE
  5
FC
330
1F
100
AcDbEntity
  8
0
  6
Continuous
 62
     1
370
    25
100
AcDbLine
 10
285.7191861528
 20
117.6754170122
 30
0.0
 11
285.7191861528
 21
157.6754170122
 31
0.0
  0
LINE
  5
FD
330
1F
100
AcDbEntity
  8
0
  6
Continuous
 62
     1
370
    25
100
AcDbLine
 10
285.7191861528
 20
77.6754170122
 30
0.0
 11
285.7191861528
 21
117.6754170122
 31
0.0
  0
LINE
  5
FE
330
1F
100
AcDbEntity
  8
0
  6
Continuous
 62
     7
370
    25
100
AcDbLine
 10
78.6701403815
 20
-58.2883507469
 30
0.0
 11
78.6701403815
 21
-122.6939138245
 31
0.0
  0
LINE
  5
FF
330
1F
100
AcDbEntity
  8
0
  6
Continuous
 62
     7
370
    25
100
AcDbLine
 10
193.6701403815
 20
-122.6939138245
 30
0.0
 11
193.6701403815
 21
-58.2883507469
 31
0.0
  0
ARC
  5
100
330
1F
100
AcDbEntity
  8
0
  6
Continuous
 62
     7
370
    25
100
AcDbCircle
 10
80.6701403815
 20
-58.2883507469
 30
0.0
 40
2.000000000000006
100
AcDbArc
 50
102.8750015596
 51
180.0
  0
ARC
  5
101
330
1F
100
AcDbEntity
  8
0
  6
Continuous
 62
     7
370
    25
100
AcDbCircle
 10
191.6701403815
 20
-58.2883507469
 30
0.0
 40
2.000000000000006
100
AcDbArc
 50
0.0
 51
77.1249984404
  0
LINE
  5
102
330
1F
100
AcDbEntity
  8
0
  6
Continuous
 62
     7
370
    25
100
AcDbLine
 10
192.1157899845
 20
-56.3386337338
 30
0.0
 11
177.7244907785
 21
-53.0491939152
 31
0.0
  0
LINE
  5
103
330
1F
100
AcDbEntity
  8
0
  6
Continuous
 62
     7
370
    25
100
AcDbLine
 10
94.6157899845
 20
-53.0491939152
 30
0.0
 11
80.2244907785
 21
-56.3386337338
 31
0.0
  0
ARC
  5
104
330
1F
100
AcDbEntity
  8
0
  6
Continuous
 62
     7
370
    25
100
AcDbCircle
 10
94.1701403815
 20
-51.0994769021
 30
0.0
 40
2.000000000000014
100
AcDbArc
 50
282.8750015596
 51
0.0
  0
ARC
  5
105
330
1F
100
AcDbEntity
  8
0
  6
Continuous
 62
     7
370
    25
100
AcDbCircle
 10
178.1701403815
 20
-51.0994769021
 30
0.0
 40
2.0
100
AcDbArc
 50
180.0
 51
257.1249984404
  0
LINE
  5
106
330
1F
100
AcDbEntity
  8
0
  6
Continuous
 62
     7
370
    25
100
AcDbLine
 10
96.1701403815
 20
7.3060861755
 30
0.0
 11
96.1701403815
 21
-51.0994769021
 31
0.0
  0
LINE
  5
107
330
1F
100
AcDbEntity
  8
0
  6
Continuous
 62
     7
370
    25
100
AcDbLine
 10
176.1701403815
 20
-51.0994769021
 30
0.0
 11
176.1701403815
 21
7.3060861755
 31
0.0
  0
LINE
  5
108
330
1F
100
AcDbEntity
  8
0
  6
Continuous
 62
     7
370
    25
100
AcDbLine
 10
78.6701403815
 20
-122.6939138245
 30
0.0
 11
193.6701403815
 21
-122.6939138245
 31
0.0
  0
LINE
  5
109
330
1F
100
AcDbEntity
  8
0
  6
Continuous
 62
     7
370
    25
100
AcDbLine
 10
96.1701403815
 20
7.3060861755
 30
0.0
 11
176.1701403815
 21
7.3060861755
 31
0.0
  0
LINE
  5
10A
330
1F
100
AcDbEntity
  8
0
  6
Continuous
 62
     1
370
    25
100
AcDbLine
 10
78.6701403815
 20
-58.2883507469
 30
0.0
 11
193.6701403815
 21
-58.2883507469
 31
0.0
  0
LINE
  5
10B
330
1F
100
AcDbEntity
  8
0
  6
Continuous
 62
     1
370
    25
100
AcDbLine
 10
80.2244907785
 20
-56.3386337338
 30
0.0
 11
192.1157899845
 21
-56.3386337338
 31
0.0
  0
LINE
  5
10C
330
1F
100
AcDbEntity
  8
0
  6
Continuous
 62
     1
370
    25
100
AcDbLine
 10
94.6157899845
 20
-53.0491939152
 30
0.0
 11
177.7244907785
 21
-53.0491939152
 31
0.0
  0
LINE
  5
10D
330
1F
100
AcDbEntity
  8
0
  6
Continuous
 62
     1
370
    25
100
AcDbLine
 10
96.1701403815
 20
-51.0994769021
 30
0.0
 11
176.1701403815
 21
-51.0994769021
 31
0.0
  0
LINE
  5
10E
330
1F
100
AcDbEntity
  8
0
  6
Continuous
 62
     7
370
    25
100
AcDbLine
 10
343.825244617
 20
7.4050453726
 30
0.0
 11
298.2836342186
 21
33.6956574442
 31
0.0
  0
LINE
  5
10F
330
1F
100
AcDbEntity
  8
0
  6
Continuous
 62
     7
370
    25
100
AcDbLine
 10
240.7883070921
 20
-65.8999617296
 30
0.0
 11
268.1928249049
 21
-81.7202531186
 31
0.0
  0
LINE
  5
110
330
1F
100
AcDbEntity
  8
0
  6
Continuous
 62
     7
370
    25
100
AcDbLine
 10
277.2124020132
 20
-86.9271441514
 30
0.0
 11
286.3299174904
 21
-92.1905738011
 31
0.0
  0
LINE
  5
111
330
1F
100
AcDbEntity
  8
0
  6
Continuous
 62
     7
370
    25
100
AcDbLine
 10
268.1928249049
 20
-66.1445023246
 30
0.0
 11
268.1928249049
 21
-83.0579679171
 31
0.0
  0
LINE
  5
112
330
1F
100
AcDbEntity
  8
0
  6
Continuous
 62
     7
370
    25
100
AcDbLine
 10
282.1928249049
 20
-83.0579679171
 30
0.0
 11
282.1928249049
 21
-66.1446644942
 31
0.0
  0
SPLINE
  5
113
330
1F
100
AcDbEntity
  8
0
  6
Continuous
 62
     7
370
    25
100
AcDbSpline
210
0.0
220
0.0
230
1.0
 70
     8
 71
     3
 72
    73
 73
    69
 74
     0
 42
0.00000001
 43
0.00000001
 40
0.0
 40
0.0
 40
0.0
 40
0.0
 40
0.0066807624945775
 40
0.0217400527593218
 40
0.0368006942311176
 40
0.0518810707865275
 40
0.0669987937050808
 40
0.0821677814641087
 40
0.0973972572148881
 40
0.1126914041817245
 40
0.1280496707094223
 40
0.1434675993454966
 40
0.1589379695980202
 40
0.1744520171482079
 40
0.1900005272903842
 40
0.2055746765112556
 40
0.2211665807816086
 40
0.2367695753183646
 40
0.252378286768146
 40
0.2679881026812101
 40
0.2835956187878288
 40
0.2991989517285762
 40
0.3147969010294968
 40
0.3303887986019233
 40
0.3459743819957857
 40
0.3615536917235488
 40
0.377126990460797
 40
0.3926947009315863
 40
0.4082573591148316
 40
0.4238155796571763
 40
0.4393700308012797
 40
0.4549214165986361
 40
0.4704704646028203
 40
0.4860179176024103
 40
0.5015645282439118
 40
0.5171110556154188
 40
0.532658126259997
 40
0.5482063885981459
 40
0.5637566099351402
 40
0.5793095565614629
 40
0.5948659901708402
 40
0.6104266622469825
 40
0.625992305429617
 40
0.6415636206567699
 40
0.65714125856874
 40
0.6727257932696822
 40
0.688317686082219
 40
0.7039172364275857
 40
0.7195245164870272
 40
0.7351392859874613
 40
0.7507608835563254
 40
0.7663880920247784
 40
0.7820189774675699
 40
0.79764993102927
 40
0.8132762402769043
 40
0.8288922744431751
 40
0.844491009588626
 40
0.8600640892476555
 40
0.8756021075725973
 40
0.891095185935709
 40
0.9065338756105055
 40
0.9219103434634419
 40
0.9372196965583929
 40
0.9524612087897875
 40
0.9676391724770952
 40
0.9827631402093127
 40
0.9978474406325574
 40
1.0
 40
1.0
 40
1.0
 40
1.0
 10
286.1289667907095
 20
-92.05355145607493
 30
0.0
 10
286.3391408371496
 20
-92.18266328162974
 30
0.0
 10
287.0230739753143
 20
-92.60280961996945
 30
0.0
 10
288.2524463696612
 20
-93.18889858904281
 30
0.0
 10
289.8089564355034
 20
-93.81344028275018
 30
0.0
 10
291.4277788599464
 20
-94.30956091402165
 30
0.0
 10
293.1007246094343
 20
-94.68485755336386
 30
0.0
 10
294.8259461892754
 20
-94.93602633425058
 30
0.0
 10
296.5996313751315
 20
-95.0627560192345
 30
0.0
 10
298.4180978869662
 20
-95.06409881450159
 30
0.0
 10
300.2771665341095
 20
-94.93958407728229
 30
0.0
 10
302.1723368372579
 20
-94.6890497832037
 30
0.0
 10
304.0988067962791
 20
-94.31278801856615
 30
0.0
 10
306.0515734709099
 20
-93.8115599045072
 30
0.0
 10
308.0255246481658
 20
-93.18659880127237
 30
0.0
 10
310.0155233410728
 20
-92.43957926027058
 30
0.0
 10
312.0164705472889
 20
-91.57257241243715
 30
0.0
 10
314.0233453468424
 20
-90.58799667026965
 30
0.0
 10
316.0312049972899
 20
-89.48858316049355
 30
0.0
 10
318.0351959582798
 20
-88.27734093533707
 30
0.0
 10
320.0305775394546
 20
-86.95751496567678
 30
0.0
 10
322.0127323372673
 20
-85.53254736636485
 30
0.0
 10
323.9771501228178
 20
-84.00606067753766
 30
0.0
 10
325.9193933059253
 20
-82.38186676616787
 30
0.0
 10
327.8350937092794
 20
-80.6639606498388
 30
0.0
 10
329.7199520896846
 20
-78.85651531386246
 30
0.0
 10
331.5697401279606
 20
-76.96387666893445
 30
0.0
 10
333.3803044704804
 20
-74.99055809701392
 30
0.0
 10
335.1475723709983
 20
-72.9412342609009
 30
0.0
 10
336.8675585063829
 20
-70.82073401357799
 30
0.0
 10
338.5363725903518
 20
-68.63403235160983
 30
0.0
 10
340.1502274672331
 20
-66.38624142637262
 30
0.0
 10
341.705447423092
 20
-64.08260066972957
 30
0.0
 10
343.1984765001429
 20
-61.72846611560752
 30
0.0
 10
344.6258866397392
 20
-59.32929901470904
 30
0.0
 10
345.9843815305603
 20
-56.89066099356304
 30
0.0
 10
347.2708057018228
 20
-54.41820109869172
 30
0.0
 10
348.4821556329208
 20
-51.91763674745351
 30
0.0
 10
349.6155891914271
 20
-49.39473268220416
 30
0.0
 10
350.6684296414407
 20
-46.85528820640155
 30
0.0
 10
351.6381672330589
 20
-44.30513012617349
 30
0.0
 10
352.5224632579418
 20
-41.75009962366757
 30
0.0
 10
353.3191533014677
 20
-39.19603948190654
 30
0.0
 10
354.02624968814
 20
-36.64878188574513
 30
0.0
 10
354.6419431556989
 20
-34.11413706026534
 30
0.0
 10
355.1646038484913
 20
-31.59788305271635
 30
0.0
 10
355.592781800927
 20
-29.10575701052814
 30
0.0
 10
355.9252071959599
 20
-26.64344834905518
 30
0.0
 10
356.1607908411396
 20
-24.2165942244536
 30
0.0
 10
356.2986255142603
 20
-21.83077770686938
 30
0.0
 10
356.3379890942515
 20
-19.49152894693109
 30
0.0
 10
356.2783506997723
 20
-17.20432940170491
 30
0.0
 10
356.1193839946088
 20
-14.97465559947313
 30
0.0
 10
355.8609932765059
 20
-12.80798252059705
 30
0.0
 10
355.5033450061912
 20
-10.70976852190349
 30
0.0
 10
355.0468971133694
 20
-8.685422284789045
 30
0.0
 10
354.4924377898034
 20
-6.740295954874743
 30
0.0
 10
353.8411347192999
 20
-4.879674958983323
 30
0.0
 10
353.0945813615525
 20
-3.108724311088343
 30
0.0
 10
352.2548239161172
 20
-1.432421940250401
 30
0.0
 10
351.3243869152529
 20
0.1445709282582586
 30
0.0
 10
350.3061732860034
 20
1.617890649588775
 30
0.0
 10
349.2036520442797
 20
2.984026577002016
 30
0.0
 10
348.0197846733743
 20
4.238676698737502
 30
0.0
 10
346.7604652248961
 20
5.383092341278976
 30
0.0
 10
345.4211323785625
 20
6.400540908720248
 30
0.0
 10
344.4309323503986
 20
7.07456997120328
 30
0.0
 10
343.869011312799
 20
7.373363178926964
 30
0.0
 10
343.7988379512972
 20
7.410676826889784
 30
0.0
  0
LINE
  5
114
330
1F
100
AcDbEntity
  8
0
  6
Continuous
 62
     7
370
    25
100
AcDbLine
 10
381.4582268623
 20
-34.526724916
 30
0.0
 11
356.3129192221
 21
-20.0106477986
 31
0.0
  0
LINE
  5
115
330
1F
100
AcDbEntity
  8
0
  6
Continuous
 62
     7
370
    25
100
AcDbLine
 10
316.3185110388
 20
-89.2959082902
 30
0.0
 11
341.4614775569
 21
-103.8106339064
 31
0.0
  0
LINE
  5
116
330
1F
100
AcDbEntity
  8
0
  6
Continuous
 62
     7
370
    25
100
AcDbLine
 10
348.8029979601
 20
-98.313484663
 30
0.0
 11
348.8029979601
 21
-112.0376028355
 31
0.0
  0
LINE
  5
117
330
1F
100
AcDbEntity
  8
0
  6
Continuous
 62
     7
370
    25
100
AcDbLine
 10
362.8029979601
 20
-112.0376028355
 30
0.0
 11
362.8029979601
 21
-98.3136682367
 31
0.0
  0
LWPOLYLINE
  5
118
330
1F
100
AcDbEntity
  8
0
  6
Continuous
 62
     7
370
    25
100
AcDbPolyline
 90
      123
 70
   128
 43
0.0
 10
228.8773307371
 20
-39.5738853576
 10
228.9312404391
 20
-37.1257799568
 10
229.092826586
 20
-34.6219236744
 10
229.3616606806
 20
-32.0689562872
 10
229.7370298232
 20
-29.4736478057
 10
230.2179386021
 20
-26.8428805215
 10
230.8031117339
 20
-24.1836307565
 10
231.4909974446
 20
-21.5029503631
 10
232.2797715848
 20
-18.8079480237
 10
233.1673424675
 20
-16.1057704
 10
234.1513564142
 20
-13.4035831813
 10
235.2292039967
 20
-10.7085520824
 10
236.3980269571
 20
-8.0278238413
 10
237.654725787
 20
-5.3685072673
 10
238.995967947
 20
-2.7376543899
 10
240.418196704
 20
-0.142241758
 10
241.9176405631
 20
2.4108480606
 10
243.4903232686
 20
4.9148447308
 10
245.1320743488
 20
7.3631081034
 10
246.8385401749
 20
9.7491458243
 10
248.6051955063
 20
12.0666305502
 10
250.4273554907
 20
14.3094167283
 10
252.3001880873
 20
16.4715568929
 10
254.2187268809
 20
18.5473174368
 10
256.1778842514
 20
20.5311938164
 10
258.1724648656
 20
22.417925148
 10
260.1971794544
 20
24.2025081594
 10
262.2466588386
 20
25.8802104572
 10
264.3154681674
 20
27.4465830766
 10
266.3981213302
 20
28.8974722789
 10
268.4890955054
 20
30.2290305668
 10
270.5828458053
 20
31.4377268871
 10
272.6738199805
 20
32.5203559944
 10
274.7564731434
 20
33.474046951
 10
276.8252824721
 20
34.2962707399
 10
278.8747618563
 20
34.9848469715
 10
280.8994764451
 20
35.5379496652
 10
282.8940570593
 20
35.9541120924
 10
284.8532144298
 20
36.2322306648
 10
286.7717532234
 20
36.3715678623
 10
288.64458582
 20
36.3717541874
 10
290.4667458044
 20
36.2327891462
 10
292.2334011359
 20
35.9550412489
 10
293.939866962
 20
35.5392470331
 10
295.5816180421
 20
34.9865091101
 10
297.1543007476
 20
34.2982932418
 10
298.6537446067
 20
33.4764244527
 10
300.0759733637
 20
32.5230821913
 10
301.4172155237
 20
31.4407945497
 10
302.6739143536
 20
30.2324315603
 10
303.842737314
 20
28.9011975844
 10
304.9205848966
 20
27.4506228153
 10
305.9045988432
 20
25.8845539165
 10
306.7921697259
 20
24.2071438212
 10
307.5809438662
 20
22.4228407193
 10
308.2688295768
 20
20.536376262
 10
308.8540027086
 20
18.5527530139
 10
309.3349114876
 20
16.4772311872
 10
309.7102806301
 20
14.3153146927
 10
309.9791147247
 20
12.0727365443
 10
310.1407008716
 20
9.755443656
 10
310.1946105736
 20
7.3695810722
 10
310.1407008716
 20
4.9214756713
 10
309.9791147247
 20
2.4176193889
 10
309.7102806301
 20
-0.1353479983
 10
309.3349114876
 20
-2.7306564798
 10
308.8540027086
 20
-5.3614237639
 10
308.2688295768
 20
-8.0206735289
 10
307.5809438662
 20
-10.7013539224
 10
306.7921697259
 20
-13.3963562618
 10
305.9045988432
 20
-16.0985338855
 10
304.9205848966
 20
-18.8007211041
 10
303.842737314
 20
-21.495752203
 10
302.6739143536
 20
-24.1764804442
 10
301.4172155237
 20
-26.8357970182
 10
300.0759733637
 20
-29.4666498955
 10
298.6537446067
 20
-32.0620625274
 10
297.1543007476
 20
-34.615152346
 10
295.5816180421
 20
-37.1191490162
 10
293.939866962
 20
-39.5674123889
 10
292.2334011359
 20
-41.9534501097
 10
290.4667458044
 20
-44.2709348357
 10
288.64458582
 20
-46.5137210138
 10
286.7717532234
 20
-48.6758611783
 10
284.8532144298
 20
-50.7516217223
 10
282.8940570593
 20
-52.7354981018
 10
280.8994764451
 20
-54.6222294334
 10
278.8747618563
 20
-56.4068124448
 10
276.8252824721
 20
-58.0845147426
 10
274.7564731434
 20
-59.650887362
 10
272.6738199805
 20
-61.1017765643
 10
270.5828458053
 20
-62.4333348522
 10
268.4890955054
 20
-63.6420311725
 10
266.3981213302
 20
-64.7246602799
 10
264.3154681674
 20
-65.6783512365
 10
262.2466588386
 20
-66.5005750254
 10
260.1971794544
 20
-67.1891512569
 10
258.1724648656
 20
-67.7422539507
 10
256.1778842514
 20
-68.1584163778
 10
254.2187268809
 20
-68.4365349503
 10
252.3001880873
 20
-68.5758721477
 10
250.4273554907
 20
-68.5760584729
 10
248.6051955063
 20
-68.4370934317
 10
246.8385401749
 20
-68.1593455344
 10
245.1320743488
 20
-67.7435513185
 10
243.4903232686
 20
-67.1908133956
 10
241.9176405631
 20
-66.5025975272
 10
240.418196704
 20
-65.6807287382
 10
238.995967947
 20
-64.7273864767
 10
237.654725787
 20
-63.6450988352
 10
236.3980269571
 20
-62.4367358457
 10
235.2292039967
 20
-61.1055018699
 10
234.1513564142
 20
-59.6549271008
 10
233.1673424675
 20
-58.088858202
 10
232.2797715848
 20
-56.4114481066
 10
231.4909974446
 20
-54.6271450048
 10
230.8031117339
 20
-52.7406805475
 10
230.2179386021
 20
-50.7570572994
 10
229.7370298232
 20
-48.6815354727
 10
229.3616606806
 20
-46.5196189782
 10
229.092826586
 20
-44.2770408297
 10
228.9312404391
 20
-41.9597479415
 10
228.8773307371
 20
-39.5738853576
  0
SPLINE
  5
119
330
1F
100
AcDbEntity
  8
0
  6
Continuous
 62
     7
370
    25
100
AcDbSpline
210
0.0
220
0.0
230
1.0
 70
     8
 71
     3
 72
    12
 73
     8
 74
     0
 42
0.00000001
 43
0.00000001
 40
0.0
 40
0.0
 40
0.0
 40
0.0
 40
0.2136858440049819
 40
0.4273761297308038
 40
0.6410136048883537
 40
0.8546575131010168
 40
1.0
 40
1.0
 40
1.0
 40
1.0
 10
270.2430774365457
 20
-63.46145288207011
 30
0.0
 10
269.9798199871565
 20
-63.62739246474912
 30
0.0
 10
269.453299616251
 20
-63.95927507936374
 30
0.0
 10
268.8583144992334
 20
-64.52021064743909
 30
0.0
 10
268.4426350162968
 20
-65.11080941878227
 30
0.0
 10
268.2148295785029
 20
-65.65767290404585
 30
0.0
 10
268.2149324916646
 20
-66.00446909248303
 30
0.0
 10
268.2149741580203
 20
-66.14487614177766
 30
0.0
  0
SPLINE
  5
11A
330
1F
100
AcDbEntity
  8
0
  6
Continuous
 62
     7
370
    25
100
AcDbSpline
210
0.0
220
0.0
230
1.0
 70
     8
 71
     3
 72
    21
 73
    17
 74
     0
 42
0.00000001
 43
0.00000001
 40
0.0
 40
0.0
 40
0.0
 40
0.0
 40
0.0462906553121682
 40
0.1180608147847088
 40
0.1898287688496226
 40
0.2614160909368979
 40
0.3330018507395665
 40
0.4041157523690586
 40
0.4752311549803068
 40
0.5463224625593133
 40
0.6174159192165088
 40
0.6889671011612991
 40
0.7605177656955342
 40
0.8322973588536403
 40
0.9040745060367504
 40
1.0
 40
1.0
 40
1.0
 40
1.0
 10
282.1698758778601
 20
-66.14498702381927
 30
0.0
 10
282.1709671364433
 20
-65.98541552942262
 30
0.0
 10
282.1737503089132
 20
-65.57844050351652
 30
0.0
 10
281.9500750968655
 20
-64.93716027775493
 30
0.0
 10
281.5376519867185
 20
-64.25097183799954
 30
0.0
 10
280.9330430609963
 20
-63.63227753542903
 30
0.0
 10
280.1727198193462
 20
-63.09852063574929
 30
0.0
 10
279.2701154425518
 20
-62.66938061618138
 30
0.0
 10
278.2581475016859
 20
-62.35026277069287
 30
0.0
 10
277.1593343337424
 20
-62.15193936626441
 30
0.0
 10
276.0049068513742
 20
-62.07046670614631
 30
0.0
 10
274.8251336689357
 20
-62.10941137949018
 30
0.0
 10
273.6508519528445
 20
-62.25855556277221
 30
0.0
 10
272.5223035261045
 20
-62.51525288502449
 30
0.0
 10
271.3359945511852
 20
-62.89719481457129
 30
0.0
 10
270.6407535572644
 20
-63.25613817305747
 30
0.0
 10
270.2430774365457
 20
-63.46145288207011
 30
0.0
  0
LWPOLYLINE
  5
11B
330
1F
100
AcDbEntity
  8
0
  6
Continuous
 62
     7
370
    25
100
AcDbPolyline
 90
      109
 70
   128
 43
0.0
 10
237.716165502
 20
-34.4713346587
 10
237.7699995761
 20
-32.303763748
 10
237.9313196411
 20
-30.0813717121
 10
238.199579841
 20
-27.8116784221
 10
238.573872468
 20
-25.5023638018
 10
239.0529310345
 20
-23.1612418409
 10
239.6351345579
 20
-20.7962341548
 10
240.3185130457
 20
-18.4153431812
 10
241.1007541616
 20
-16.0266251012
 10
241.979211049
 20
-13.6381625809
 10
242.9509112882
 20
-11.2580374213
 10
244.0125669529
 20
-8.8943032126
 10
245.1605857365
 20
-6.554958083
 10
246.3910831068
 20
-4.247917636
 10
247.6998954502
 20
-1.9809881663
 10
249.0825941601
 20
0.2381597545
 10
250.5345006217
 20
2.4020172323
 10
252.0507020431
 20
4.5032624582
 10
253.6260680787
 20
6.5347854837
 10
255.2552681884
 20
8.4897122777
 10
256.9327896748
 20
10.3614279869
 10
258.6529563362
 20
12.1435993179
 10
260.4099476731
 20
13.8301959668
 10
262.1978185831
 20
15.4155110246
 10
264.0105194768
 20
16.894180287
 10
265.8419167482
 20
18.2612004051
 10
267.6858135288
 20
19.5119458157
 10
269.5359706554
 20
20.6421843921
 10
271.386127782
 20
21.6480917649
 10
273.2300245625
 20
22.5262642619
 10
275.061421834
 20
23.2737304252
 10
276.8741227277
 20
23.8879610661
 10
278.6619936376
 20
24.3668778225
 10
280.4189849745
 20
24.7088601917
 10
282.1391516359
 20
24.9127510135
 10
283.8166731223
 20
24.977860386
 10
285.4458732321
 20
24.9039679997
 10
287.0212392676
 20
24.691323883
 10
288.537440689
 20
24.3406475563
 10
289.9893471506
 20
23.8531255973
 10
291.3720458605
 20
23.2304076259
 10
292.6808582039
 20
22.4746007227
 10
293.9113555742
 20
21.5882622991
 10
295.0593743578
 20
20.5743914435
 10
296.1210300226
 20
19.4364187742
 10
297.0927302617
 20
18.1781948303
 10
297.9711871492
 20
16.8039770435
 10
298.753428265
 20
15.3184153317
 10
299.4368067528
 20
13.7265363655
 10
300.0190102762
 20
12.0337265594
 10
300.4980688427
 20
10.2457138461
 10
300.8723614698
 20
8.3685482944
 10
301.1406216696
 20
6.4085816385
 10
301.3019417346
 20
4.372445785
 10
301.3557758088
 20
2.2670303733
 10
301.3019417346
 20
0.0994594625
 10
301.1406216696
 20
-2.1229325734
 10
300.8723614698
 20
-4.3926258633
 10
300.4980688427
 20
-6.7019404836
 10
300.0190102762
 20
-9.0430624446
 10
299.4368067528
 20
-11.4080701306
 10
298.753428265
 20
-13.7889611043
 10
297.9711871492
 20
-16.1776791842
 10
297.0927302617
 20
-18.5661417045
 10
296.1210300226
 20
-20.9462668641
 10
295.0593743578
 20
-23.3100010729
 10
293.9113555742
 20
-25.6493462025
 10
292.6808582039
 20
-27.9563866494
 10
291.3720458605
 20
-30.2233161192
 10
289.9893471506
 20
-32.44246404
 10
288.537440689
 20
-34.6063215177
 10
287.0212392676
 20
-36.7075667437
 10
285.4458732321
 20
-38.7390897691
 10
283.8166731223
 20
-40.6940165632
 10
282.1391516359
 20
-42.5657322724
 10
280.4189849745
 20
-44.3479036033
 10
278.6619936376
 20
-46.0345002523
 10
276.8741227277
 20
-47.6198153101
 10
275.061421834
 20
-49.0984845724
 10
273.2300245625
 20
-50.4655046905
 10
271.386127782
 20
-51.7162501011
 10
269.5359706554
 20
-52.8464886776
 10
267.6858135287
 20
-53.8523960504
 10
265.8419167482
 20
-54.7305685473
 10
264.0105194768
 20
-55.4780347107
 10
262.1978185831
 20
-56.0922653516
 10
260.4099476731
 20
-56.571182108
 10
258.6529563362
 20
-56.9131644771
 10
256.9327896748
 20
-57.1170552989
 10
255.2552681884
 20
-57.1821646714
 10
253.6260680787
 20
-57.1082722851
 10
252.0507020431
 20
-56.8956281684
 10
250.5345006217
 20
-56.5449518417
 10
249.0825941601
 20
-56.0574298827
 10
247.6998954502
 20
-55.4347119114
 10
246.3910831068
 20
-54.6789050082
 10
245.1605857365
 20
-53.7925665845
 10
244.0125669529
 20
-52.778695729
 10
242.9509112882
 20
-51.6407230596
 10
241.979211049
 20
-50.3824991158
 10
241.1007541616
 20
-49.0082813289
 10
240.3185130457
 20
-47.5227196171
 10
239.6351345579
 20
-45.930840651
 10
239.0529310345
 20
-44.2380308449
 10
238.573872468
 20
-42.4500181315
 10
238.199579841
 20
-40.5728525799
 10
237.9313196411
 20
-38.6128859239
 10
237.7699995761
 20
-36.5767500705
 10
237.716165502
 20
-34.4713346587
  0
LWPOLYLINE
  5
11C
330
1F
100
AcDbEntity
  8
0
  6
Continuous
 62
     7
370
    25
100
AcDbPolyline
 90
       43
 70
   128
 43
0.0
 10
270.2430774365
 20
-80.2005395257
 10
271.0360836058
 20
-79.8065770371
 10
271.9219445069
 20
-79.485245248
 10
272.8808714712
 20
-79.2437221795
 10
273.8914436547
 20
-79.087403058
 10
274.9310865449
 20
-79.0197797942
 10
275.9765762376
 20
-79.0423629803
 10
277.0045582206
 20
-79.154648145
 10
277.9920690751
 20
-79.3541270234
 10
278.9170494405
 20
-79.6363435869
 10
279.7588367838
 20
-79.9949935839
 10
280.4986269669
 20
-80.4220653662
 10
281.1198942994
 20
-80.9080188557
 10
281.6087606959
 20
-81.4419986545
 10
281.9543056889
 20
-82.0120765364
 10
282.1488103741
 20
-82.6055179034
 10
282.1879298384
 20
-83.2090662561
 10
282.0707902175
 20
-83.8092393216
 10
281.800008217
 20
-84.3926302253
 10
281.3816326594
 20
-84.9462069785
 10
280.8250093632
 20
-85.4576035913
 10
280.1425723732
 20
-85.9153963085
 10
279.3495662039
 20
-86.3093587971
 10
278.4637053028
 20
-86.6306905863
 10
277.5047783385
 20
-86.8722136547
 10
276.494206155
 20
-87.0285327762
 10
275.4545632648
 20
-87.09615604
 10
274.4090735721
 20
-87.073572854
 10
273.3810915891
 20
-86.9612876892
 10
272.3935807346
 20
-86.7618088108
 10
271.4686003692
 20
-86.4795922473
 10
270.6268130259
 20
-86.1209422503
 10
269.8870228428
 20
-85.6938704681
 10
269.2657555103
 20
-85.2079169786
 10
268.7768891138
 20
-84.6739371797
 10
268.4313441208
 20
-84.1038592978
 10
268.2368394356
 20
-83.5104179308
 10
268.1977199713
 20
-82.9068695781
 10
268.3148595922
 20
-82.3066965127
 10
268.5856415927
 20
-81.7233056089
 10
269.0040171503
 20
-81.1697288557
 10
269.5606404465
 20
-80.6583322429
 10
270.2430774365
 20
-80.2005395257
  0
LWPOLYLINE
  5
11D
330
1F
100
AcDbEntity
  8
0
  6
Continuous
 62
     7
370
    25
100
AcDbPolyline
 90
       37
 70
   128
 43
0.0
 10
271.6572909989
 20
-81.0169476376
 10
272.3249427231
 20
-80.6935358696
 10
273.0797335961
 20
-80.441966173
 10
273.8987296793
 20
-80.2698823656
 10
274.7570461911
 20
-80.1825131268
 10
275.6286036186
 20
-80.1825131268
 10
276.4869201304
 20
-80.2698823656
 10
277.3059162136
 20
-80.441966173
 10
278.0607070866
 20
-80.6935358696
 10
278.7283588108
 20
-81.0169476376
 10
279.2885851263
 20
-81.4023747739
 10
279.72436384
 20
-81.8381062701
 10
280.0224540363
 20
-82.3109026452
 10
280.1737983953
 20
-82.8063982205
 10
280.1737983953
 20
-83.3095376137
 10
280.0224540363
 20
-83.8050331891
 10
279.72436384
 20
-84.2778295641
 10
279.2885851263
 20
-84.7135610603
 10
278.7283588108
 20
-85.0989881967
 10
278.0607070866
 20
-85.4223999646
 10
277.3059162136
 20
-85.6739696612
 10
276.4869201304
 20
-85.8460534686
 10
275.6286036186
 20
-85.9334227074
 10
274.7570461911
 20
-85.9334227074
 10
273.8987296793
 20
-85.8460534686
 10
273.0797335961
 20
-85.6739696612
 10
272.3249427231
 20
-85.4223999646
 10
271.6572909989
 20
-85.0989881967
 10
271.0970646834
 20
-84.7135610603
 10
270.6612859697
 20
-84.2778295641
 10
270.3631957734
 20
-83.8050331891
 10
270.2118514144
 20
-83.3095376137
 10
270.2118514144
 20
-82.8063982205
 10
270.3631957734
 20
-82.3109026452
 10
270.6612859697
 20
-81.8381062701
 10
271.0970646834
 20
-81.4023747739
 10
271.6572909989
 20
-81.0169476376
  0
LWPOLYLINE
  5
11E
330
1F
100
AcDbEntity
  8
0
  6
Continuous
 62
     7
370
    25
100
AcDbPolyline
 90
       39
 70
   128
 43
0.0
 10
381.4582268623
 20
-34.526724916
 10
382.3621808786
 20
-35.0980224036
 10
383.4955785031
 20
-35.9713704569
 10
384.54538707
 20
-36.970647274
 10
385.5076242958
 20
-38.0920622557
 10
386.3786400851
 20
-39.3313614907
 10
387.1551303767
 20
-40.6838438928
 10
387.8341496768
 20
-42.1443790327
 10
388.4131222328
 20
-43.7074266005
 10
388.8898518034
 20
-45.3670574213
 10
389.26252999
 20
-47.116975947
 10
389.5297430967
 20
-48.9505441373
 10
389.6904774926
 20
-50.8608066398
 10
389.7441234571
 20
-52.8405171748
 10
389.6904774926
 20
-54.8821660218
 10
389.5297430967
 20
-56.9780085077
 10
389.26252999
 20
-59.120094384
 10
388.8898518034
 20
-61.3002979851
 10
388.4131222328
 20
-63.5103490521
 10
387.8341496768
 20
-65.7418641043
 10
387.1551303767
 20
-67.9863782407
 10
386.3786400851
 20
-70.2353772505
 10
385.5076242958
 20
-72.4803299099
 10
384.54538707
 20
-74.7127203447
 10
383.4955785031
 20
-76.9240803333
 10
382.3621808786
 20
-79.1060214297
 10
381.1494935618
 20
-81.2502667841
 10
379.8621166911
 20
-83.3486825393
 10
378.5049337281
 20
-85.3933086856
 10
377.0830929324
 20
-87.3763892557
 10
375.6019878333
 20
-89.2904017458
 10
374.0672367698
 20
-91.1280856508
 10
372.4846615782
 20
-92.8824700063
 10
370.8602655085
 20
-94.5468998315
 10
369.2002104512
 20
-96.1150613739
 10
367.5107935638
 20
-97.5810060598
 10
365.7984233833
 20
-98.9391730587
 10
364.0695955162
 20
-100.184410378
 10
362.8029979601
 20
-101.0180827468
  0
ARC
  5
11F
330
1F
100
AcDbEntity
  8
0
  6
Continuous
 62
     7
370
    25
100
AcDbCircle
 10
348.5925312542
 20
-91.1891608562
 30
0.0
 40
14.49667233511826
100
AcDbArc
 50
240.5338221117
 51
270.8318652287
  0
SPLINE
  5
120
330
1F
100
AcDbEntity
  8
0
  6
Continuous
 62
     7
370
    25
100
AcDbSpline
210
0.0
220
0.0
230
1.0
 70
     8
 71
     3
 72
    12
 73
     8
 74
     0
 42
0.00000001
 43
0.00000001
 40
0.0
 40
0.0
 40
0.0
 40
0.0
 40
0.2125441142582072
 40
0.4250971968915715
 40
0.6375435413836273
 40
0.8500029599629688
 40
1.0
 40
1.0
 40
1.0
 40
1.0
 10
350.8532504918123
 20
-95.70725104796382
 30
0.0
 10
350.5910759353583
 20
-95.87158955912884
 30
0.0
 10
350.0667157599007
 20
-96.2002735157813
 30
0.0
 10
349.4735564066247
 20
-96.74542993613264
 30
0.0
 10
349.0577694265046
 20
-97.31321642194368
 30
0.0
 10
348.827094724774
 20
-97.84011437494011
 30
0.0
 10
348.8250752976546
 20
-98.17521314092856
 30
0.0
 10
348.8242395887487
 20
-98.313888619937
 30
0.0
  0
SPLINE
  5
121
330
1F
100
AcDbEntity
  8
0
  6
Continuous
 62
     7
370
    25
100
AcDbSpline
210
0.0
220
0.0
230
1.0
 70
     8
 71
     3
 72
    21
 73
    17
 74
     0
 42
0.00000001
 43
0.00000001
 40
0.0
 40
0.0
 40
0.0
 40
0.0
 40
0.0406844583910513
 40
0.1126313426160802
 40
0.1845737332676889
 40
0.2561939594655168
 40
0.327810656321272
 40
0.3984369830879474
 40
0.4690662091287466
 40
0.5395942130868157
 40
0.6101266810524221
 40
0.6815893142909354
 40
0.7530511888019492
 40
0.8250386879681593
 40
0.8970210940966046
 40
1.0
 40
1.0
 40
1.0
 40
1.0
 10
362.7786723417004
 20
-98.3138292787213
 30
0.0
 10
362.782014318349
 20
-98.16884117854764
 30
0.0
 10
362.7912662865896
 20
-97.76745438290813
 30
0.0
 10
362.5841807339173
 20
-97.12112570730669
 30
0.0
 10
362.1864277961047
 20
-96.40918789408023
 30
0.0
 10
361.5935751542029
 20
-95.7703201361902
 30
0.0
 10
360.8454290111097
 20
-95.22483229374551
 30
0.0
 10
359.9556796673972
 20
-94.7930132856806
 30
0.0
 10
358.9587526226019
 20
-94.47857688279984
 30
0.0
 10
357.8747449683884
 20
-94.29034345072837
 30
0.0
 10
356.731737529455
 20
-94.2216947781849
 30
0.0
 10
355.5581251714717
 20
-94.27474526240717
 30
0.0
 10
354.3822649572504
 20
-94.43797709941445
 30
0.0
 10
353.2464645775823
 20
-94.70639033015327
 30
0.0
 10
352.0121308479522
 20
-95.10901443687055
 30
0.0
 10
351.2826242328088
 20
-95.48559996004501
 30
0.0
 10
350.8532504918123
 20
-95.70725104796382
 30
0.0
  0
LWPOLYLINE
  5
122
330
1F
100
AcDbEntity
  8
0
  6
Continuous
 62
     7
370
    25
100
AcDbPolyline
 90
       43
 70
   128
 43
0.0
 10
350.8532504918
 20
-109.1801744441
 10
351.6462566611
 20
-108.7862119554
 10
352.5321175622
 20
-108.4648801663
 10
353.4910445264
 20
-108.2233570979
 10
354.50161671
 20
-108.0670379763
 10
355.5412596002
 20
-107.9994147126
 10
356.5867492928
 20
-108.0219978986
 10
357.6147312758
 20
-108.1342830633
 10
358.6022421304
 20
-108.3337619417
 10
359.5272224957
 20
-108.6159785053
 10
360.3690098391
 20
-108.9746285023
 10
361.1088000221
 20
-109.4017002845
 10
361.7300673547
 20
-109.887653774
 10
362.2189337512
 20
-110.4216335729
 10
362.5644787441
 20
-110.9917114547
 10
362.7589834294
 20
-111.5851528217
 10
362.7981028936
 20
-112.1887011744
 10
362.6809632728
 20
-112.7888742399
 10
362.4101812723
 20
-113.3722651436
 10
361.9918057147
 20
-113.9258418969
 10
361.4351824185
 20
-114.4372385097
 10
360.7527454284
 20
-114.8950312268
 10
359.9597392591
 20
-115.2889937155
 10
359.073878358
 20
-115.6103255046
 10
358.1149513938
 20
-115.8518485731
 10
357.1043792103
 20
-116.0081676946
 10
356.0647363201
 20
-116.0757909583
 10
355.0192466274
 20
-116.0532077723
 10
353.9912646444
 20
-115.9409226076
 10
353.0037537899
 20
-115.7414437292
 10
352.0787734245
 20
-115.4592271656
 10
351.2369860812
 20
-115.1005771686
 10
350.4971958981
 20
-114.6735053864
 10
349.8759285655
 20
-114.1875518969
 10
349.387062169
 20
-113.6535720981
 10
349.0415171761
 20
-113.0834942162
 10
348.8470124909
 20
-112.4900528492
 10
348.8078930266
 20
-111.8865044965
 10
348.9250326475
 20
-111.286331431
 10
349.195814648
 20
-110.7029405273
 10
349.6141902056
 20
-110.149363774
 10
350.1708135018
 20
-109.6379671612
 10
350.8532504918
 20
-109.1801744441
  0
LWPOLYLINE
  5
123
330
1F
100
AcDbEntity
  8
0
  6
Continuous
 62
     7
370
    25
100
AcDbPolyline
 90
       37
 70
   128
 43
0.0
 10
352.2674640542
 20
-109.9965825559
 10
352.9351157784
 20
-109.673170788
 10
353.6899066514
 20
-109.4216010913
 10
354.5089027346
 20
-109.2495172839
 10
355.3672192464
 20
-109.1621480452
 10
356.2387766739
 20
-109.1621480452
 10
357.0970931856
 20
-109.2495172839
 10
357.9160892688
 20
-109.4216010913
 10
358.6708801419
 20
-109.673170788
 10
359.3385318661
 20
-109.9965825559
 10
359.8987581816
 20
-110.3820096922
 10
360.3345368953
 20
-110.8177411884
 10
360.6326270916
 20
-111.2905375635
 10
360.7839714506
 20
-111.7860331388
 10
360.7839714506
 20
-112.2891725321
 10
360.6326270916
 20
-112.7846681074
 10
360.3345368953
 20
-113.2574644825
 10
359.8987581816
 20
-113.6931959787
 10
359.3385318661
 20
-114.078623115
 10
358.6708801419
 20
-114.4020348829
 10
357.9160892688
 20
-114.6536045796
 10
357.0970931856
 20
-114.825688387
 10
356.2387766739
 20
-114.9130576257
 10
355.3672192464
 20
-114.9130576257
 10
354.5089027346
 20
-114.825688387
 10
353.6899066514
 20
-114.6536045796
 10
352.9351157784
 20
-114.4020348829
 10
352.2674640542
 20
-114.078623115
 10
351.7072377387
 20
-113.6931959787
 10
351.2714590249
 20
-113.2574644825
 10
350.9733688287
 20
-112.7846681074
 10
350.8220244697
 20
-112.2891725321
 10
350.8220244697
 20
-111.7860331388
 10
350.9733688287
 20
-111.2905375635
 10
351.2714590249
 20
-110.8177411884
 10
351.7072377387
 20
-110.3820096922
 10
352.2674640542
 20
-109.9965825559
  0
LWPOLYLINE
  5
124
330
1F
100
AcDbEntity
  8
0
  6
Continuous
 62
     1
370
    25
100
AcDbPolyline
 90
       63
 70
   128
 43
0.0
 10
343.825244617
 20
7.4050453726
 10
344.195355005
 20
7.1858123812
 10
345.617583762
 20
6.2324701197
 10
346.958825922
 20
5.1501824782
 10
348.2155247519
 20
3.9418194887
 10
349.3843477123
 20
2.6105855129
 10
350.4621952949
 20
1.1600107438
 10
351.4462092415
 20
-0.406058155
 10
352.3337801242
 20
-2.0834682503
 10
353.1225542645
 20
-3.8677713522
 10
353.8104399751
 20
-5.7542358095
 10
354.3956131069
 20
-7.7378590576
 10
354.8765218859
 20
-9.8133808843
 10
355.2518910284
 20
-11.9752973788
 10
355.520725123
 20
-14.2178755273
 10
355.68231127
 20
-16.5351684155
 10
355.7362209719
 20
-18.9210309994
 10
355.68231127
 20
-21.3691364002
 10
355.520725123
 20
-23.8729926826
 10
355.2518910284
 20
-26.4259600698
 10
354.8765218859
 20
-29.0212685513
 10
354.3956131069
 20
-31.6520358355
 10
353.8104399751
 20
-34.3112856004
 10
353.1225542645
 20
-36.9919659939
 10
352.3337801242
 20
-39.6869683333
 10
351.4462092415
 20
-42.389145957
 10
350.4621952949
 20
-45.0913331757
 10
349.3843477123
 20
-47.7863642746
 10
348.2155247519
 20
-50.4670925157
 10
346.958825922
 20
-53.1264090897
 10
345.617583762
 20
-55.7572619671
 10
344.195355005
 20
-58.3526745989
 10
342.6959111459
 20
-60.9057644176
 10
341.1232284404
 20
-63.4097610877
 10
339.4814773603
 20
-65.8580244604
 10
337.7750115342
 20
-68.2440621813
 10
336.0083562027
 20
-70.5615469072
 10
334.1861962184
 20
-72.8043330853
 10
332.3133636217
 20
-74.9664732499
 10
330.3948248281
 20
-77.0422337938
 10
328.4356674577
 20
-79.0261101733
 10
326.4410868434
 20
-80.912841505
 10
324.4163722546
 20
-82.6974245164
 10
322.3668928704
 20
-84.3751268142
 10
320.2980835417
 20
-85.9414994335
 10
318.2154303788
 20
-87.3923886358
 10
316.1244562036
 20
-88.7239469237
 10
314.0307059037
 20
-89.9326432441
 10
311.9397317285
 20
-91.0152723514
 10
309.8570785657
 20
-91.968963308
 10
307.7882692369
 20
-92.7911870969
 10
305.7387898527
 20
-93.4797633285
 10
303.7140752639
 20
-94.0328660222
 10
301.7194946497
 20
-94.4490284493
 10
299.7603372792
 20
-94.7271470218
 10
297.8417984856
 20
-94.8664842193
 10
295.968965889
 20
-94.8666705444
 10
294.1468059046
 20
-94.7277055032
 10
292.3801505732
 20
-94.4499576059
 10
290.6736847471
 20
-94.03416339
 10
289.0319336669
 20
-93.4814254671
 10
287.4592509614
 20
-92.7932095988
 10
286.3299174904
 20
-92.1905738011
  0
ENDSEC
  0
SECTION
  2
OBJECTS
  0
DICTIONARY
  5
C
330
0
100
AcDbDictionary
281
     1
  3
ACAD_GROUP
350
D
  3
ACAD_LAYOUT
350
1A
  3
ACAD_MLINESTYLE
350
17
  3
ACAD_PLOTSETTINGS
350
19
  3
ACAD_PLOTSTYLENAME
350
E
  3
ACAD_SCALELIST
350
47
  3
DWGPROPS
350
125
  0
DICTIONARY
  5
D
102
{ACAD_REACTORS
330
C
102
}
330
C
100
AcDbDictionary
281
     1
  0
DICTIONARY
  5
1A
102
{ACAD_REACTORS
330
C
102
}
330
C
100
AcDbDictionary
281
     1
  3
Layout1
350
1E
  3
Layout2
350
26
  3
Model
350
22
  0
DICTIONARY
  5
17
102
{ACAD_REACTORS
330
C
102
}
330
C
100
AcDbDictionary
281
     1
  3
Standard
350
18
  0
DICTIONARY
  5
19
102
{ACAD_REACTORS
330
C
102
}
330
C
100
AcDbDictionary
281
     1
  0
ACDBDICTIONARYWDFLT
  5
E
102
{ACAD_REACTORS
330
C
102
}
330
C
100
AcDbDictionary
281
     1
  3
Normal
350
F
100
AcDbDictionaryWithDefault
340
F
  0
DICTIONARY
  5
47
102
{ACAD_REACTORS
330
C
102
}
330
C
100
AcDbDictionary
281
     1
  3
A0
350
48
  3
A1
350
49
  3
A2
350
4A
  3
A3
350
4B
  3
A4
350
4C
  3
A5
350
4D
  3
A6
350
4E
  3
A7
350
4F
  3
A8
350
50
  3
A9
350
51
  3
B0
350
52
  3
B1
350
53
  3
B2
350
54
  3
B3
350
55
  3
B4
350
56
  3
B5
350
57
  3
B6
350
58
  3
B7
350
59
  3
B8
350
5A
  3
B9
350
5B
  3
C0
350
5C
  3
C1
350
5D
  3
C2
350
5E
  3
C3
350
5F
  3
C4
350
60
  3
C5
350
61
  3
C6
350
62
  3
C7
350
63
  3
C8
350
64
  3
C9
350
65
  3
D0
350
66
  3
D1
350
67
  3
D2
350
68
  0
XRECORD
  5
125
102
{ACAD_REACTORS
330
C
102
}
330
C
100
AcDbXrecord
280
     1
  1
DWGPROPS COOKIE
  2

  3

  4

  6

  7

  8
b.kav
  9

300
=
301
=
302
=
303
=
304
=
305
=
306
=
307
=
308
=
309
=
 40
0.0
 41
2460346.545781563
 42
2460346.545781748
  1

 90
        0
  0
LAYOUT
  5
1E
102
{ACAD_REACTORS
330
1A
102
}
330
1A
100
AcDbPlotSettings
  1

  2
none_device
  4

  6

 40
0.0
 41
0.0
 42
0.0
 43
0.0
 44
0.0
 45
0.0
 46
0.0
 47
0.0
 48
0.0
 49
0.0
140
0.0
141
0.0
142
1.0
143
1.0
 70
   688
 72
     1
 73
     0
 74
     5
  7

 75
    16
147
1.0
148
0.0
149
0.0
100
AcDbLayout
  1
Layout1
 70
     1
 71
     1
 10
0.0
 20
0.0
 11
420.0
 21
297.0
 12
0.0
 22
0.0
 32
0.0
 14
1.0000000000E+20
 24
1.0000000000E+20
 34
1.0000000000E+20
 15
-1.0000000000E+20
 25
-1.0000000000E+20
 35
-1.0000000000E+20
146
0.0
 13
0.0
 23
0.0
 33
0.0
 16
1.0
 26
0.0
 36
0.0
 17
0.0
 27
1.0
 37
0.0
 76
     0
330
1B
  0
LAYOUT
  5
26
102
{ACAD_REACTORS
330
1A
102
}
330
1A
100
AcDbPlotSettings
  1

  2
none_device
  4

  6

 40
0.0
 41
0.0
 42
0.0
 43
0.0
 44
0.0
 45
0.0
 46
0.0
 47
0.0
 48
0.0
 49
0.0
140
0.0
141
0.0
142
1.0
143
1.0
 70
   688
 72
     1
 73
     0
 74
     5
  7

 75
    16
147
1.0
148
0.0
149
0.0
100
AcDbLayout
  1
Layout2
 70
     1
 71
     2
 10
0.0
 20
0.0
 11
0.0
 21
0.0
 12
0.0
 22
0.0
 32
0.0
 14
0.0
 24
0.0
 34
0.0
 15
0.0
 25
0.0
 35
0.0
146
0.0
 13
0.0
 23
0.0
 33
0.0
 16
1.0
 26
0.0
 36
0.0
 17
0.0
 27
1.0
 37
0.0
 76
     0
330
23
  0
LAYOUT
  5
22
102
{ACAD_REACTORS
330
1A
102
}
330
1A
100
AcDbPlotSettings
  1

  2
none_device
  4
Letter_(8.50_x_11.00_Inches)
  6

 40
6.35
 41
6.35
 42
6.35000508
 43
6.35000508
 44
215.9
 45
279.4
 46
0.0
 47
0.0
 48
0.0
 49
0.0
140
0.0
141
0.0
142
1.0
143
1.0
 70
  1712
 72
     1
 73
     0
 74
     0
  7

 75
     0
147
1.0
148
0.0
149
0.0
100
AcDbLayout
  1
Model
 70
     1
 71
     0
 10
0.0
 20
0.0
 11
279.4
 21
215.9
 12
0.0
 22
0.0
 32
0.0
 14
0.0
 24
0.0
 34
0.0
 15
279.4
 25
215.9
 35
0.0
146
0.0
 13
0.0
 23
0.0
 33
0.0
 16
1.0
 26
0.0
 36
0.0
 17
0.0
 27
1.0
 37
0.0
 76
     0
330
1F
331
29
  0
MLINESTYLE
  5
18
102
{ACAD_REACTORS
330
17
102
}
330
17
100
AcDbMlineStyle
  2
Standard
 70
     0
  3

 62
   256
 51
90.0
 52
90.0
 71
     2
 49
0.5
 62
   256
  6
BYLAYER
 49
-0.5
 62
   256
  6
BYLAYER
  0
ACDBPLACEHOLDER
  5
F
102
{ACAD_REACTORS
330
E
102
}
330
E
  0
SCALE
  5
48
102
{ACAD_REACTORS
330
47
102
}
330
47
100
AcDbScale
 70
     0
300
1:1
140
1.0
141
1.0
290
     1
  0
SCALE
  5
49
102
{ACAD_REACTORS
330
47
102
}
330
47
100
AcDbScale
 70
     0
300
1:2
140
1.0
141
2.0
290
     0
  0
SCALE
  5
4A
102
{ACAD_REACTORS
330
47
102
}
330
47
100
AcDbScale
 70
     0
300
1:4
140
1.0
141
4.0
290
     0
  0
SCALE
  5
4B
102
{ACAD_REACTORS
330
47
102
}
330
47
100
AcDbScale
 70
     0
300
1:5
140
1.0
141
5.0
290
     0
  0
SCALE
  5
4C
102
{ACAD_REACTORS
330
47
102
}
330
47
100
AcDbScale
 70
     0
300
1:8
140
1.0
141
8.0
290
     0
  0
SCALE
  5
4D
102
{ACAD_REACTORS
330
47
102
}
330
47
100
AcDbScale
 70
     0
300
1:10
140
1.0
141
10.0
290
     0
  0
SCALE
  5
4E
102
{ACAD_REACTORS
330
47
102
}
330
47
100
AcDbScale
 70
     0
300
1:16
140
1.0
141
16.0
290
     0
  0
SCALE
  5
4F
102
{ACAD_REACTORS
330
47
102
}
330
47
100
AcDbScale
 70
     0
300
1:20
140
1.0
141
20.0
290
     0
  0
SCALE
  5
50
102
{ACAD_REACTORS
330
47
102
}
330
47
100
AcDbScale
 70
     0
300
1:30
140
1.0
141
30.0
290
     0
  0
SCALE
  5
51
102
{ACAD_REACTORS
330
47
102
}
330
47
100
AcDbScale
 70
     0
300
1:40
140
1.0
141
40.0
290
     0
  0
SCALE
  5
52
102
{ACAD_REACTORS
330
47
102
}
330
47
100
AcDbScale
 70
     0
300
1:50
140
1.0
141
50.0
290
     0
  0
SCALE
  5
53
102
{ACAD_REACTORS
330
47
102
}
330
47
100
AcDbScale
 70
     0
300
1:100
140
1.0
141
100.0
290
     0
  0
SCALE
  5
54
102
{ACAD_REACTORS
330
47
102
}
330
47
100
AcDbScale
 70
     0
300
2:1
140
2.0
141
1.0
290
     0
  0
SCALE
  5
55
102
{ACAD_REACTORS
330
47
102
}
330
47
100
AcDbScale
 70
     0
300
4:1
140
4.0
141
1.0
290
     0
  0
SCALE
  5
56
102
{ACAD_REACTORS
330
47
102
}
330
47
100
AcDbScale
 70
     0
300
8:1
140
8.0
141
1.0
290
     0
  0
SCALE
  5
57
102
{ACAD_REACTORS
330
47
102
}
330
47
100
AcDbScale
 70
     0
300
10:1
140
10.0
141
1.0
290
     0
  0
SCALE
  5
58
102
{ACAD_REACTORS
330
47
102
}
330
47
100
AcDbScale
 70
     0
300
100:1
140
100.0
141
1.0
290
     0
  0
SCALE
  5
59
102
{ACAD_REACTORS
330
47
102
}
330
47
100
AcDbScale
 70
     0
300
1/128" = 1'-0"
140
0.0078125
141
12.0
290
     0
  0
SCALE
  5
5A
102
{ACAD_REACTORS
330
47
102
}
330
47
100
AcDbScale
 70
     0
300
1/64" = 1'-0"
140
0.015625
141
12.0
290
     0
  0
SCALE
  5
5B
102
{ACAD_REACTORS
330
47
102
}
330
47
100
AcDbScale
 70
     0
300
1/32" = 1'-0"
140
0.03125
141
12.0
290
     0
  0
SCALE
  5
5C
102
{ACAD_REACTORS
330
47
102
}
330
47
100
AcDbScale
 70
     0
300
1/16" = 1'-0"
140
0.0625
141
12.0
290
     0
  0
SCALE
  5
5D
102
{ACAD_REACTORS
330
47
102
}
330
47
100
AcDbScale
 70
     0
300
3/32" = 1'-0"
140
0.09375
141
12.0
290
     0
  0
SCALE
  5
5E
102
{ACAD_REACTORS
330
47
102
}
330
47
100
AcDbScale
 70
     0
300
1/8" = 1'-0"
140
0.125
141
12.0
290
     0
  0
SCALE
  5
5F
102
{ACAD_REACTORS
330
47
102
}
330
47
100
AcDbScale
 70
     0
300
3/16" = 1'-0"
140
0.1875
141
12.0
290
     0
  0
SCALE
  5
60
102
{ACAD_REACTORS
330
47
102
}
330
47
100
AcDbScale
 70
     0
300
1/4" = 1'-0"
140
0.25
141
12.0
290
     0
  0
SCALE
  5
61
102
{ACAD_REACTORS
330
47
102
}
330
47
100
AcDbScale
 70
     0
300
3/8" = 1'-0"
140
0.375
141
12.0
290
     0
  0
SCALE
  5
62
102
{ACAD_REACTORS
330
47
102
}
330
47
100
AcDbScale
 70
     0
300
1/2" = 1'-0"
140
0.5
141
12.0
290
     0
  0
SCALE
  5
63
102
{ACAD_REACTORS
330
47
102
}
330
47
100
AcDbScale
 70
     0
300
3/4" = 1'-0"
140
0.75
141
12.0
290
     0
  0
SCALE
  5
64
102
{ACAD_REACTORS
330
47
102
}
330
47
100
AcDbScale
 70
     0
300
1" = 1'-0"
140
1.0
141
12.0
290
     0
  0
SCALE
  5
65
102
{ACAD_REACTORS
330
47
102
}
330
47
100
AcDbScale
 70
     0
300
1-1/2" = 1'-0"
140
1.5
141
12.0
290
     0
  0
SCALE
  5
66
102
{ACAD_REACTORS
330
47
102
}
330
47
100
AcDbScale
 70
     0
300
3" = 1'-0"
140
3.0
141
12.0
290
     0
  0
SCALE
  5
67
102
{ACAD_REACTORS
330
47
102
}
330
47
100
AcDbScale
 70
     0
300
6" = 1'-0"
140
6.0
141
12.0
290
     0
  0
SCALE
  5
68
102
{ACAD_REACTORS
330
47
102
}
330
47
100
AcDbScale
 70
     0
300
1'-0" = 1'-0"
140
12.0
141
12.0
290
     0
  0
ENDSEC
  0
EOF
